PrimaNota.ru - самый крупный в мире бесплатный архив песенных текстов, аккордов, табулатур и нот


Misc Computer Games - Sims 3 - A Love Since Forgotten - таба, видео

Регистрация Запомнить меня
Войти через:  Facebook Google Twitter Vk Yandex Mail.ru

Misc Computer Games - Sims 3 - A Love Since Forgotten - таба, видео

Печатать
Просмотров: 270
Уроки эстрадного вокала в Санкт-Петербурге
Edited tab for A Love Since Forgotten

If you have any queries: australiarocks@hotmail.co.uk

--------------------------------------------------------------------------|
--------------------------------------------------------------------------|
--------------------------------------------------------------------------|
------------0-----0----------------0-----0--------------------------------|
--2------2-----4-----2----2-----2-----4-----2-----------------------------|
-----2-----------------------2--------------------------------------------|

--------------------------------------------------------------------------|
--------------------------------------------------------------------------|
--------------------------------------------------------------------------|
--------0-----2--0--0--------0-----2--0--0--------------------------------|
-----2-----2--------------2-----2-----------------------------------------|
--3--------------------3--------------------------------------------------|

--------------------------------------------------------------------------|
--------------------------------------------------------------------------|
--------------------------------------------------------------------------|
--------0------4--2--2-------0-----4--2--2--------------------------------|
-----2-----2--------------2-----2-----------------------------------------|
--0--------------------0--------------------------------------------------|

--------------------------------------------------------------------------|
--------------------------------------------------------------------------|
--------------------------------------------------------------------------|
--------------0--0---------------0--0-----------------0-------------------|
-----2--4--2------------2--4--2--------------2--4--2----------------------|
--3------------------3--------------------2---------------2---------------|

--------------------------------------------------------------------------|
--------------------------------------------------------------------------|
--------------------------------------------------------------------------|
-2-------------------------------------2----------------------------------|
----4--2--0--2--4---0--4--2--0--2--4------4--2--0--2--4---0---0--2--4--0--|
--------------------------------------------------------------------------|

--------------------------------------------------------------------------|
--------------------------------------------------------------------------|
--------------------------------------------------------------------------|
------------0-----0----------------0-----0--------------------------------|
--2------2-----4-----2----2-----2-----4-----2-----------------------------|
-----2-----------------------2--------------------------------------------|

--------------------------------------------------------------------------|
--------------------------------------------------------------------------|
--------------------------------------------------------------------------|
--------0-----2--0--0--------0-----2--0--0--------------------------------|
-----2-----2--------------2-----2-----------------------------------------|
--3--------------------3--------------------------------------------------|

--------------------------------------------------------------------------|
--------------------------------------------------------------------------|
--------------------------------------------------------------------------|
--------0------4--2--2--------0-----4--2--2-------------------------------|
-----2-----2---------------2-----2----------------------------------------|
--0---------------------0-------------------------------------------------|

--------------------------------------------------------------------------|
--------------------------------------------------------------------------|
--------------------------------------------------------------------------|
--------------0--0----------------0---------------------------------------|
-----2--4--2-------------2--4--2------------------------------------------|
--3-------------------2---------------2-----------------------------------|

--------------------------------------------------------------------------|
--------------------------------------------------------------------------|
--------------------------------------------------------------------------|
----------------------2------------------------------------2--------------|
--0---4--2--0--2--4-------0--2--4--0----0--4--2--0--2--4------0--2--4--0--|
--------------------------------------------------------------------------|
Добавлено: 17.06.2012
Другие материалы по этой песне:
  • Аккорды и текст

Страница создана 17.06.2012
http://primanota.ru/misc-computer-games/sims-3-a-love-since-forgotten-chords.htm
Привет, Гость.
Предлагаем пройти революционный курс по гитаре.
Подарок от PrimaNota.Ru, забирай!