PrimaNota.ru - самый крупный в мире бесплатный архив песенных текстов, аккордов, табулатур и нот


Misc Computer Games - Rushn Attack - Stage 1 - таба, бас-таба, видео

Регистрация Запомнить меня
Войти через:  Facebook Google Twitter Vk Yandex Mail.ru

Misc Computer Games - Rushn Attack - Stage 1 - таба, бас-таба, видео

Печатать
Просмотров: 46
Новый альбом группы 'Черный Кузнец' по культовому сериалу 'Сверхъестественное'!
Gtr I (E A D G B E) - 'Sawtooth'
Gtr II (E A D G B E) - 'Sawtooth Harmony'
Gtr III (E A D G B E) - 'Squarewave'

   Q=110
  6/8
   Gtr I
    S  S  S  S  S  S  S  S  S  S  S  S    S  S  S  S  S  S  S  S  S  S  S  S
e|-------------------------------------|-------------------------------------|
B|-------------------------------------|-------------------------------------|
G|----------10-------------------------|----------10-------------------------|
D|-10-12-13----13-12-10----10-13-10-10-|-10-12-13----13-12-10----10-13-10-10-|
A|----------------------13-------------|----------------------13-------------|
E|-------------------------------------|-------------------------------------|
 |
 | Gtr II
 |  S  S  S  S  S  S  S  S  S  S  S  S    S  S  S  S  S  S  S  S  S  S  S  S
e|-------------------------------------|-------------------------------------|
B|-------------------------------------|-------------------------------------|
G|-------------------------------------|-------------------------------------|
D|-------10-12-10-------------10-------|-------10-12-10-------------10-------|
A|-11-13----------13-11-10-11----11-11-|-11-13----------13-11-10-11----11-11-|
E|-------------------------------------|-------------------------------------|


    S  S  S  S  S  S  S  S  S  S  S  S    S  S  S  S  S  S  S  S  S  S  S  S
e|----------13-------------------------|----------13-------------------13-15---|
B|-13-15-16----16-15-13----13-16-13-13-|-13-15-16----16-15-13----13-16---------|
G|----------------------15-------------|----------------------15---------------|
D|-------------------------------------|---------------------------------------|
A|-------------------------------------|---------------------------------------|
E|-------------------------------------|---------------------------------------|
 |
 |  S  S  S  S  S  S  S  S  S  S  S  S    S  S  S  S  S  S  S  S  S  S  S  S
e|-------------------------------------|---------------------------------------|
B|-------13-15-13-------------13-------|-------13-15-13-------------13-15-16---|
G|-13-15----------15-13-12-13----13-13-|-13-15----------15-13-12-13------------|
D|-------------------------------------|---------------------------------------|
A|-------------------------------------|---------------------------------------|
E|-------------------------------------|---------------------------------------|


     Gtr III
      Q   S  S  E  Q     Q.   E Q     Q   S  S  E  Q     Q.   Q.
e||-------------------|------------|------------------|-----------|
B||o------------------|------------|------------------|-----------|
G||---------10-13-----|---------8--|--------10-13-----|-----------|
D||--10--10-------10--|-10----8----|-10--10-------10--|-10----8---|
A||o------------------|------------|------------------|-----------|
E||-------------------|------------|------------------|-----------|


   Gtr I
    Q   S  S  E  Q     Q.    E  Q     Q   S  S  E  Q     Q.    Q.
e|--------13-16-----|----------11--|--------13-16-----|-13----15-----|
B|-13--13-------13--|-13----11-----|-13--13-------13--|--------------|
G|------------------|--------------|------------------|--------------|
D|------------------|--------------|------------------|--------------|
A|------------------|--------------|------------------|--------------|
E|------------------|--------------|------------------|--------------|
 |
 |  Q   S  S  E  Q     Q.    E  Q     Q   S  S  E  Q     Q.    Q.
e|-----------13-----|--------------|-----------13-----|--------------|
B|--------13--------|----------13--|--------13--------|-14----16-----|
G|-13--13-------13--|-13----12-----|-13--13-------13--|--------------|
D|------------------|--------------|------------------|--------------|
A|------------------|--------------|------------------|--------------|
E|------------------|--------------|------------------|--------------|


    E  Q   E  Q     S  S  E  +S   S  S  S  Q
e|---------------|------------------11--------|
B|---------------|-13-11-13-(13)-15----15-13--|
G|---------------|----------------------------|
D|-10-12--13-12--|----------------------------|
A|---------------|----------------------------|
E|---------------|----------------------------|
 |
 |  E  Q   E  Q     S  S  E  +S   S  S  S  Q
e|---------------|----------------------------|
B|---------------|---------------11-13-11-----|
G|---------------|-13-12-13-(13)----------13--|
D|-----8--10--8--|----------------------------|
A|-11------------|----------------------------|
E|---------------|----------------------------|


    E  Q   E  Q     S  S  E  +S   S  S  S  Q
e|---------------|------------------11-13-15----|
B|---------------|-13-11-13-(13)-15-------------|
G|---------------|------------------------------|
D|-10-12--13-12--|------------------------------|
A|---------------|------------------------------|
E|---------------|------------------------------|
 |
 |  E  Q   E  Q     S  S  E  +S   S  S  S  Q
e|---------------|---------------------10-11----|
B|---------------|---------------11-13----------|
G|---------------|-13-12-13-(13)----------------|
D|-----8--10--8--|------------------------------|
A|-11------------|------------------------------|
E|---------------|------------------------------|


    E  Q   E  Q     E  S  S  +E   +S   S  S  S  S  S
e|---------------|-----------------------------------|
B|---------------|--------------------------------11-|
G|-10------------|-----------------------10----10----|
D|----13--12-10--|-13-10-10-(10)-(10)-10----10-------|
A|---------------|-----------------------------------|
E|---------------|-----------------------------------|
 |
 |  E  Q   E  Q     E  S  S  +E   +S   S  S  S  S  S
e|---------------|-----------------------------------|
B|---------------|-----------------------------------|
G|---------------|--------------------------------10-|
D|-12-10---------|-10--------------------12----12----|
A|--------13-11--|----13-13-(13)-(13)-13----13-------|
E|---------------|-----------------------------------|


    E  Q   E  Q     E  S  S  +E  Q.
e|-13-11--10-----|-15-13-13-(13)-------|
B|-----------13--|---------------------|
G|---------------|---------------------|
D|---------------|---------------------|
A|---------------|---------------------|
E|---------------|---------------------|
 |
 |  E  Q   E  Q     E  S  S  +E  Q.
e|---------------|---------------------|
B|-15-13---------|-16-15-15-(15)-------|
G|--------15-13--|---------------------|
D|---------------|---------------------|
A|---------------|---------------------|
E|---------------|---------------------|


   Gtr III
   E. S  S  S E. S  S  S   Q.    E  Q    E. S  S  S E. S  S  S   Q.    E  Q
e|-----------------------|-------------|-----------------------|---------------|
B|-----------------------|-------------|-----------------------|---------------|
G|-----------------------|-8-----------|-----------------------|-8-------------|
D|---------10---------10-|------10-----|---------10---------10-|------10-------|
A|-8--8-11----8--8-11----|-------------|-8--8-11----8--8-11----|---------------|
E|-----------------------|---------11--|-----------------------|---------11----|


   Gtr I
    S  S  S  S  S  S  S  S  E E    S  S  S  S  S  S  S  S  S  S  S  S
e|------------------------------|-------11-13-11----------------------|
B|----------11------------------|----13----------14-13-14-13-11-------|
G|-10-12-13----13-12-10----10---|-13----------------------------12----|
D|----------------------13------|----------------------------------13-|
A|------------------------------|-------------------------------------|
E|------------------------------|-------------------------------------|
 |
 |  S  S  S  S  S  S  S  S  E E    S  S  S  S  S  S  S  S  S  S  S  S
e|------------------------------|-------------------------------------|
B|------------------------------|-------13-14-13-11----11-------------|
G|-------10-12-10---------------|-10-13-------------13----13-12-10----|
D|----13----------10----10------|----------------------------------10-|
A|-11----------------11----11---|-------------------------------------|
E|------------------------------|-------------------------------------|


    S  S  S  S  S  S  S  S  E   E    S  S  S  S  S  S  S  S  S  S  S  S
e|--------------------------------|-------11-13-11-------------------------||
B|----------11--------------------|----13----------14-13-14-13-11----11---o||
G|-10-12-13----13-12-10----10-----|-13----------------------------12-------||
D|----------------------13--------|----------------------------------------||
A|--------------------------------|---------------------------------------o||
E|--------------------------------|----------------------------------------||
 |
 |  S  S  S  S  S  S  S  S  S E      S  S  S  S  S  S  S  S  S  S  S  S
e|--------------------------------|----------------------------------------||
B|-----------8--------------------|-------13-14-13-11----11---------------o||
G|-----8-10----10--8--------------|-10-13-------------13----13-12----12----||
D|----------------------10--------|-------------------------------13-------||
A|--8----------------11----11-----|---------------------------------------o||
E|--------------------------------|----------------------------------------||


************************************

| (n)  Ghost note
|  o   reprise 

************************************
Добавлено: 18.03.2018
Другие материалы по этой песне:

Страница создана 11.03.2018
http://primanota.ru/misc-computer-games/rushn-attack-stage-1-chords.htm
Привет, Гость.
Предлагаем пройти революционный курс по гитаре.
Подарок от PrimaNota.Ru, забирай!