PrimaNota.ru - самый крупный в мире бесплатный архив песенных текстов, аккордов, табулатур и нот


Misc Computer Games - Rollercoaster Tycoon 2 - Rock Style 2 - таба, видео

Регистрация Запомнить меня
Войти через:  Facebook Google Twitter Vk Yandex Mail.ru

Misc Computer Games - Rollercoaster Tycoon 2 - Rock Style 2 - таба, видео

Печатать
Просмотров: 138
                                 Rock style 2                                   
                            RollerCoaster Tycoon 2

                                                                Allister Brimble
Tab version 1.3

Instruments:
* Rhythm Guitar
* Lead Guitar

Instruments removed from version 1.3 update:
* Bass
* Drums

This tab was exported from my Guitar Pro 5 version of the tab.


Rhythm Guitar

Tempo = 104 bpm

     Esus4       F#sus4                Asus4    Bsus4            
     Q     E  S  S      Q    S E.      Q    E   E    Q    S E.   
E||--------------------------------|----------------------------|
B||--------------------------------|----------------------------|
G||--2--------2s-4------L----L-----|--/7-------/9----L----L-----|
D||--2--------2s-4------L----L-----|--/7-------/9----L----L-----|
A||--------------------------------|----------------------------|
D||--------------------------------|----------------------------|


  A5      B5               D5      E5            
  Q    E  E  Q    S E.     Q    E  E  Q    Q     
------------------------|-----------------------|
------------------------|-----------------------|
--2-------4--L----L-----|--7-------9--L---------|
--2-------4--L----L-----|--7-------9--L---------|
--0-------2--L----L-----|--5-------7--L---------|
------------------------|-----------------------|


  Esus4       F#sus4                Asus4    Bsus4            
  Q     E  S  S      Q    S E.      Q    E   E    Q    S E.   
--------------------------------|----------------------------|
--------------------------------|----------------------------|
--2--------2s-4------L----L-----|--/7-------/9----L----L-----|
--2--------2s-4------L----L-----|--/7-------/9----L----L-----|
--------------------------------|----------------------------|
--------------------------------|----------------------------|


  A5      B5               D5      E5              Esus4    F#sus4             
  Q    E  E  Q    S E.     Q    E  E  Q    Q       Q     E  E      Q    S E.   
------------------------|-----------------------|-----------------------------|
------------------------|-----------------------|-----------------------------|
--2-------4--L----L-----|--7-------9--L---------|--2--------4------L----L-----|
--2-------4--L----L-----|--7-------9--L---------|--2--------4------L----L-----|
--0-------2--L----L-----|--5-------7--L---------|-----------------------------|
------------------------|-----------------------|-----------------------------|


  Asus4    Bsus4               Esus4    F#sus4             
  Q     E  E     Q    S E.     Q     E  E      Q    S E.   
----------------------------|-----------------------------|
----------------------------|-----------------------------|
--7--------9-----L----L-----|--2--------4------L----L-----|
--7--------9-----L----L-----|--2--------4------L----L-----|
----------------------------|-----------------------------|
----------------------------|-----------------------------|


  Asus4       Bsus4                 Esus4    F#sus4             
  Q     E  S  S     Q    S E.       Q     E  E      Q    S E.   
-------------------------------||------------------------------|
-------------------------------||------------------------------|
-------------------------------||*--2--------4------L----L-----|
--0--------0s-2-----L----L-----||*--2--------4------L----L-----|
--0--------0s-2-----L----L-----||------------------------------|
-------------------------------||------------------------------|


  Asus4    Bsus4               Esus4    F#sus4             
  Q     E  E     Q    S E.     Q     E  E      Q    S E.   
----------------------------|-----------------------------|
----------------------------|-----------------------------|
--7--------9-----L----L-----|--2--------4------L----L-----|
--7--------9-----L----L-----|--2--------4------L----L-----|
----------------------------|-----------------------------|
----------------------------|-----------------------------|


  Asus4       Bsus4                 Esus4    F#sus4             
  Q     E  S  S     Q    S E.       Q     E  E      Q    S E.   
--------------------------------||-----------------------------|
--------------------------------||-----------------------------|
-------------------------------*||--2--------4------L----L-----|
--0--------0s-2-----L----L-----*||--2--------4------L----L-----|
--0--------0s-2-----L----L------||-----------------------------|
--------------------------------||-----------------------------|


  Asus4    Bsus4               Esus4    F#sus4             
  Q     E  E     Q    S E.     Q     E  E      Q    S E.   
----------------------------|-----------------------------|
----------------------------|-----------------------------|
--7--------9-----L----L-----|--2--------4------L----L-----|
--7--------9-----L----L-----|--2--------4------L----L-----|
----------------------------|-----------------------------|
----------------------------|-----------------------------|


  Asus4       Bsus4               Esus4    F#sus4             
  Q     E  S  S     Q    S E.     Q     E  E      Q    S E.   
-------------------------------|-----------------------------|
-------------------------------|-----------------------------|
-------------------------------|--2--------4------L----L-----|
--0--------0s-2-----L----L-----|--2--------4------L----L-----|
--0--------0s-2-----L----L-----|-----------------------------|
-------------------------------|-----------------------------|


  Asus4    Bsus4               Esus4    F#sus4             
  Q     E  E     Q    S E.     Q     E  E      Q    S E.   
----------------------------|-----------------------------|
----------------------------|-----------------------------|
--7--------9-----L----L-----|--2--------4------L----L-----|
--7--------9-----L----L-----|--2--------4------L----L-----|
----------------------------|-----------------------------|
----------------------------|-----------------------------|


  Asus4       Bsus4              
  Q     E  S  S     Q    S E.    
-------------------------------||
-------------------------------||
-------------------------------||
--0--------0s-2-----L----L-----||
--0--------0s-2-----L----L-----||
-------------------------------||


Lead Guitar



     W                   W                   W                 
E||-------------------|-------------------|-------------------|
B||-------------------|-------------------|-------------------|
G||-------------------|-------------------|-------------------|
D||-------------------|-------------------|-------------------|
A||-------------------|-------------------|-------------------|
D||-------------------|-------------------|-------------------|


  W                   W                   W                   W                 
-------------------|-------------------|-------------------|-------------------|
-------------------|-------------------|-------------------|-------------------|
-------------------|-------------------|-------------------|-------------------|
-------------------|-------------------|-------------------|-------------------|
-------------------|-------------------|-------------------|-------------------|
-------------------|-------------------|-------------------|-------------------|


  W                   W                   W                   W                 
-------------------|-------------------|-------------------|-------------------|
-------------------|-------------------|-------------------|-------------------|
-------------------|-------------------|-------------------|-------------------|
-------------------|-------------------|-------------------|-------------------|
-------------------|-------------------|-------------------|-------------------|
-------------------|-------------------|-------------------|-------------------|


  W                      S  S S  S  S S  S  S S  S  S S  S  S S  S  
-------------------||---12-10-8-12-10-8-12-10-8-12-10-8-12-10-8-12-|
-------------------||----------------------------------------------|
-------------------||*---------------------------------------------|
-------------------||*---------------------------------------------|
-------------------||----------------------------------------------|
-------------------||----------------------------------------------|


   S S  S  S S  S  S S  S  S S  S  S S  S  S  
--10-8-12-10-8-12-10-8-12-10-8-12-10-8-12-10-|
---------------------------------------------|
---------------------------------------------|
---------------------------------------------|
---------------------------------------------|
---------------------------------------------|


  S  S  S S  S  S S  S  S S  S  S S  S  S S  
--8-12-10-8-12-10-8-12-10-8-12-10-8-12-10-8-|
--------------------------------------------|
--------------------------------------------|
--------------------------------------------|
--------------------------------------------|
--------------------------------------------|


                                       PH                               
   S  S S  S  S S  S  S S  S  S S  S   E.        H.             E  S S  
--12-10-8-12-10-8-12-10-8-12-10-8-12--------||-------------------------|
-------------------------------------<>8----||--10~-------------L--8---|
-------------------------------------------*||-----------------------9-|
-------------------------------------------*||-------------------------|
--------------------------------------------||-------------------------|
--------------------------------------------||-------------------------|


  S S E  E  E  E  E  E  E      Q     Q     E  E  E  E   
---------------------------|---------------------------|
--8------------------8-----|--10----10----10--8--------|
----9-7-----7--L--9-----9--|---------------------9--7--|
---------9-----------------|---------------------------|
---------------------------|---------------------------|
---------------------------|---------------------------|


  E  E  Q     E  E  E  E      H        Q      S S S S  
--------------------------|---------------------------|
--------------------8-----|--10--------L~-----L---8---|
--L--9--9~----L--9-----9--|-------------------------9-|
--------------------------|---------------------------|
--------------------------|---------------------------|
--------------------------|---------------------------|


  S S E  E  E  E  E  E  E      Q     Q     E  E  E  E   
---------------------------|---------------------------|
--8------------------8-----|--10----12----10--8--------|
----9-7-----7--L--9-----9--|---------------------9--7--|
---------9-----------------|---------------------------|
---------------------------|---------------------------|
---------------------------|---------------------------|


  E  E  Q     Q.     E    
------------------------||
------------------------||
--L--9--9~----L---------||
------------------------||
------------------------||
------------------------||




Duration Legend
---------------
W - whole
H - half
Q - quarter
E - 8th
S - 16th
T - 32nd
X - 64th
. - note dotted
|-n-|  - n-tuplets


Tablature Legend
----------------
L - tied note
x - dead note
g - grace note
(n) - ghost note
> - accentuded note
NH - natural harmonic
AH - artificial harmonic
TH - tapped harmonic
SH - semi harmonic
PH - pitch harmonic
h - hammer on
p - pull off
b - bend
br - bendRelease
pb - preBend
pbr - preBendRelease
brb - bendReleaseBend
\n/ - tremolo bar dip
\n - tremolo bar dive
-/n - tremolo bar Release up
/n\ - tremolo bar inverted dip
/n - tremolo bar return
-\n - tremolo bar Release down
S - shift slide
s - legato slide
/ -  slide into from below or out of upwards
\ -  slide into from above or out of downwards
~ - vibrato
W - wide vibrato
tr - trill
TP - tremolo picking
T - tapping
S - slap
P - pop
< - fade in
^ - brush up
v - brush down
Добавлено: 22.03.2012
Другие материалы по этой песне:

Страница создана 22.03.2012
http://primanota.ru/misc-computer-games/rollercoaster-tycoon-2-rock-style-2-chords.htm
Привет, Гость.
Предлагаем пройти революционный курс по гитаре.
Подарок от PrimaNota.Ru, забирай!