PrimaNota.ru - самый крупный в мире бесплатный архив песенных текстов, аккордов, табулатур и нот


Misc Computer Games - Pokemon - Pokemon Lullaby Theme - таба, видео

Регистрация Запомнить меня
Войти через:  Facebook Google Twitter Vk Yandex Mail.ru

Misc Computer Games - Pokemon - Pokemon Lullaby Theme - таба, видео

Печатать
Просмотров: 116
                                         Pokemon
                                  POKEMON LULLABY THEME
                            (from the radio in Goldenrod City)  
                                  Gold - Silver - Crystal




Flute (arr. for guitar)



      E  E  E  E  E  E   E  E        E   E   E  E   E  E   E   E   
E||------------7--8--7---------||---------------8--10--8----------|
B||---------8-----------10--8--||-----------10------------12--10--|
G||------9---------------------||*------10------------------------|
D||--10------------------------||*--12----------------------------|
A||----------------------------||---------------------------------|
E||----------------------------||---------------------------------|


   E  E  E  E  E  E   E  E      E   E   E  E   E  E   E   E   
------------7--8--7---------|--------------8--10--8----------|
---------8-----------10--8--|----------10------------12--10--|
------9---------------------|------10------------------------|
--10------------------------|--12----------------------------|
----------------------------|--------------------------------|
----------------------------|--------------------------------|


   E  E  E  E  E  E   E  E      E   E   E  E   E  E   E   E   
------------7--8--7---------|--------------8--10--8----------|
---------8-----------10--8--|----------10------------12--10--|
------9---------------------|------10------------------------|
--10------------------------|--12----------------------------|
----------------------------|--------------------------------|
----------------------------|--------------------------------|


   E  E  E  E  E  E   E  E      E   E   E  E   E  E   E   E   
------------7--8--7---------|--------------8--10--8----------|
---------8-----------10--8--|----------10------------12--10--|
------9---------------------|------10------------------------|
--10------------------------|--12----------------------------|
----------------------------|--------------------------------|
----------------------------|--------------------------------|


   E  E  E  E  E  E   E  E      E   E   E  E   E  E   E   E   
------------7--8--7---------|--------------8--10--8----------|
---------8-----------10--8--|----------10------------12--10--|
------9---------------------|------10------------------------|
--10------------------------|--12----------------------------|
----------------------------|--------------------------------|
----------------------------|--------------------------------|


                               Repeat infinitely    
   E  E  E  E  E  E   E  E                
------------7--8--7-------------------------||
---------8-----------10--8------------------||
------9------------------------------------*||
--10---------------------------------------*||
--------------------------------------------||
--------------------------------------------||










Guitar (Melody)


      H        H              H        E   E   E   E   
E||---------------------||----------------15--14--15--|
B||---------------------||---13-----------------------|
G||--12-----------------||*---------------------------|
D||---------------------||*---------------------------|
A||---------------------||----------------------------|
E||---------------------||----------------------------|


   H        Q     E   E      Q     Q     E   E   E   E   
--12-------------10--12--|--13----15----13--12--10--13--|
-------------------------|--13-----L----12-----------L--|
--12---------------------|------------------------------|
-------------------------|------------------------------|
-------------------------|------------------------------|
-------------------------|------------------------------|


   H        E   E   E   E      Q     Q     Q     E   E   
--12-----------10--10--12--|--13----12----13----15--15--|
---------------------------|--13-----L----12---------L--|
--12-----------------------|----------------------------|
---------------------------|----------------------------|
---------------------------|----------------------------|
---------------------------|----------------------------|


   E   H         E   E   E      Q     Q     Q     E   E   
--11--12--------------------|--------------------15--15--|
------------------------12--|--13----12----13----12---L--|
--12---L--------12--12------|--10-----L----12-----L------|
----------------------------|----------------------------|
----------------------------|----------------------------|
----------------------------|----------------------------|


   E   H        E  Q        H         H         
--11--12----------------|----------------------|
------------------------|--13--------12--------|
--12---L----------------|----------------------|
------------------------|----------------------|
------------------------|----------------------|
------------------------|----------------------|


                    Repeat infinitely    
   H        H                 
-------------------------------||
-------------------------------||
--12--------------------------*||
------------------------------*||
-------------------------------||
-------------------------------||




Duration Legend
---------------
W - whole
H - half
Q - quarter
E - 8th
S - 16th
T - 32nd
X - 64th
. - note dotted
|-n-|  - n-tuplets


Tablature Legend
----------------
L - tied note
x - dead note
g - grace note
(n) - ghost note
> - accentuded note
NH - natural harmonic
AH - artificial harmonic
TH - tapped harmonic
SH - semi harmonic
PH - pitch harmonic
h - hammer on
p - pull off
b - bend
br - bendRelease
pb - preBend
pbr - preBendRelease
brb - bendReleaseBend
\n/ - tremolo bar dip
\n - tremolo bar dive
-/n - tremolo bar Release up
/n\ - tremolo bar inverted dip
/n - tremolo bar return
-\n - tremolo bar Release down
S - shift slide
s - legato slide
/ -  slide into from below or out of upwards
\ -  slide into from above or out of downwards
~ - vibrato
W - wide vibrato
tr - trill
TP - tremolo picking
T - tapping
S - slap
P - pop
< - fade in
^ - brush up
v - brush down
Добавлено: 22.03.2012
Другие материалы по этой песне:

Страница создана 22.03.2012
http://primanota.ru/misc-computer-games/pokemon-pokemon-lullaby-theme-chords.htm
Привет, Гость.
Предлагаем пройти революционный курс по гитаре.
Подарок от PrimaNota.Ru, забирай!