PrimaNota.ru - самый крупный в мире бесплатный архив песенных текстов, аккордов, табулатур и нот


Misc Computer Games - Pokemon - Ns Room Theme - таба, видео

Регистрация Запомнить меня
Войти через:  Facebook Google Twitter Vk Yandex Mail.ru

Misc Computer Games - Pokemon - Ns Room Theme - таба, видео

Печатать
Просмотров: 159
Уроки эстрадного вокала в Санкт-Петербурге
Pokemon Black & White
"N's Room"




Melody
      Q.     E  E  E     Q    Q    Q       H        Q       H        Q     
E||-------------------|-----------------|----------------|----------------|
B||----------1--0--3--|--2----1---------|----------------|----------------|
G||*------------------|------------1----|--4-------------|--2-------------|
D||*--3---------------|-----------------|-----------4----|-----------3----|
A||-------------------|-----------------|----------------|----------------|
E||-------------------|-----------------|----------------|----------------|


  Q.     E  E  E     Q    Q    Q       H        Q       H        Q     
------------------|-------2---------|--1-------------|--0-------------|
---------2--1--3--|--2---------2----|-----------2----|----------------|
------------------|-----------------|----------------|----------------|
--4---------------|-----------------|----------------|-----------3----|
------------------|-----------------|----------------|----------------|
------------------|-----------------|----------------|----------------|


  Q.     E  E  E     Q    Q    Q       Q.     E  E  E     Q    Q    Q     
--2------------2--|--1--------------|--0------------0--|-----------------|
---------2--------|-------2---------|---------0--------|--4--------------|
------------------|-----------------|------------0-----|-------2---------|
------------4-----|-----------------|------------------|-----------------|
------------------|-----------------|------------------|-----------------|
------------------|-----------------|------------------|-----------------|


  Q    Q    Q       Q    Q    Q    Q       Q    Q    Q    
-----------------|----------------------|------------------||
-----------------|--1-------------------|------------------||
--4--------------|------------2---------|-----------------*||
------------4----|-------4---------3----|--4--------------*||
-----------------|----------------------|------------------||
-----------------|----------------------|------------------||










Harmony
      Q    Q    Q       Q    Q    Q       Q    Q    Q       Q    Q    Q     
E||-------------1----|------------1----|-----------------|-----------------|
B||--------1---------|-------1---------|------------3----|------------2----|
G||*-----------------|--1--------------|-------4---------|-------4---------|
D||*--3--------------|-----------------|--5--------------|-----------------|
A||------------------|-----------------|-----------------|--4--------------|
E||------------------|-----------------|-----------------|-----------------|


  Q    Q    Q       Q    Q    Q       Q    Q    Q       Q    Q    Q     
------------2----|------------2----|------------1----|-----------------|
------------2----|------------2----|-------1----2----|------------2----|
-------2---------|-------2---------|--1--------------|-------4---------|
--4--------------|--2--------------|-----------------|-----------------|
-----------------|-----------------|-----------------|--4--------------|
-----------------|-----------------|-----------------|-----------------|


  Q    Q    Q       Q    Q    Q       Q    Q    Q       Q    Q    Q     
-----------------|--1--------------|------------0----|-----------------|
------------2----|--0----2---------|------------0----|--4--------------|
-------2---------|--0----4---------|-------0---------|--2----2---------|
--4--------------|-------5---------|--2--------------|--3----3---------|
-----------------|-----------------|-----------------|-----------------|
-----------------|-----------------|-----------------|-----------------|


                                                      
  Q    Q    Q       Q    Q    Q    Q       Q    Q    Q                
-------2---------|--2---------1---------|-------------------------------||
--0----0---------|--4---------2---------|--2----------------------------||
--0--------------|--5---------2---------|--2---------------------------*||
-----------------|----------------------|--4---------------------------*||
-----------------|----------------------|-------------------------------||
-----------------|----------------------|-------------------------------||




Duration Legend
---------------
W - whole
H - half
Q - quarter
E - 8th
S - 16th
T - 32nd
X - 64th
. - note dotted
|-n-|  - n-tuplets
Добавлено: 23.08.2013
Другие материалы по этой песне:

Страница создана 14.06.2013
http://primanota.ru/misc-computer-games/pokemon-ns-room-theme-chords.htm
Привет, Гость.
Предлагаем пройти революционный курс по гитаре.
Подарок от PrimaNota.Ru, забирай!