PrimaNota.ru - самый крупный в мире бесплатный архив песенных текстов, аккордов, табулатур и нот


Misc Computer Games - Pokemon - Elite Four - бас-таба, видео

Регистрация Запомнить меня
Войти через:  Facebook Google Twitter Vk Yandex Mail.ru

Misc Computer Games - Pokemon - Elite Four - бас-таба, видео

Печатать
Просмотров: 95
Pokemon Red/Blue/Yellow - Elite Four

Tabbed by: XxThreeCheersxX
E-mail: phantomhiveghost@gmail.com

Tuning: Standard

Note: 11's - two 1's. There are no two-digit numbers in this tab.

G|--------------------------|
D|--------------------------|
A|-3~----3-1~----1-0~--0--2-|
E|-----3-------1------------|

G|------------------------------------------------------3------------------3~---|
D|----------0------------------------0~---2~--0-2-3--00---33--2~--0-2-3--03-----|
A|-3~-----3----11~---3~-----3--1--13--------------------------------------------|
E|------3-----------------3-----------------------------------------------------|

G|---------------------------------------------------|
D|--------------------------------------------02~----|
A|-----3~-----1--0--------------------01--3--3-------|
E|-3~------3--------3--1--0--013--3--3---------------|

Then repeat ad Infintum!  
Happy playing!
Добавлено: 12.11.2013
Другие материалы по этой песне:

Страница создана 19.06.2012
http://primanota.ru/misc-computer-games/pokemon-elite-four-chords.htm
Привет, Гость.
Предлагаем пройти революционный курс по гитаре.
Подарок от PrimaNota.Ru, забирай!