PrimaNota.ru - самый крупный в мире бесплатный архив песенных текстов, аккордов, табулатур и нот


Misc Computer Games - Ninja Gaiden - Act 4 Stage 2 - таба, бас-таба, видео

Регистрация Запомнить меня
Войти через:  Facebook Google Twitter Vk Yandex Mail.ru

Misc Computer Games - Ninja Gaiden - Act 4 Stage 2 - таба, бас-таба, видео

Печатать
Просмотров: 190
Уроки эстрадного вокала в Санкт-Петербурге
Act IV, Stage 2
Ninja Gaiden

This song is played fairly fast if you listen to the song you'll get it no 
problem. It sounds really cool and I could not find a good copy on U. Guitar so 
thought I would post it. Enjoy and good luck!

Act IV, Stage 2
Ninja Gaiden


     W                   W                     E  E  E  E  S E  S E  E   
E||-------------------|-------------------||------5-----7------------9--|
B||-------------------|-------------------||---7-----7-----5-7--5-7-----|
G||-------------------|-------------------||*---------------------------|
D||-------------------|-------------------||*---------------------------|
A||-------------------|-------------------||----------------------------|
E||-------------------|-------------------||----------------------------|


  S S S S E  E   E  E  E  E     E  E  E  E  S E  S E  E   
-----------------------------|--------7---------------9--|
--7-7-7-7-7--9--10--9--7-----|--9--7-----9--7-9--7-9-----|
-----------------------------|---------------------------|
-----------------------------|---------------------------|
-----------------------------|---------------------------|
-----------------------------|---------------------------|


  S S S S E   E  E   E  E  E     E  E  E  E  S E  S E  E   
-----------------7------------|-----5-----7------------9--|
--9-9-9-9-9--10-----10--9-----|--7-----7-----5-7--5-7-----|
------------------------------|---------------------------|
------------------------------|---------------------------|
------------------------------|---------------------------|
------------------------------|---------------------------|


  S S S S E  E   E  E  E  E     E  E  E  E  S E  S E  E   
-----------------------------|--------7---------------9--|
--7-7-7-7-7--9--10--9--7-----|--9--7-----9--7-9--7-9-----|
-----------------------------|---------------------------|
-----------------------------|---------------------------|
-----------------------------|---------------------------|
-----------------------------|---------------------------|


  S S S S E   E  E  E  E  E     Q    Q    Q    Q     
-----------------7--5--4-----|----------------------|
--9-9-9-9-9--10--------------|--7----5--------------|
-----------------------------|------------7----6----|
-----------------------------|----------------------|
-----------------------------|----------------------|
-----------------------------|----------------------|


  E  S S S S S E.  E  E  E      E  E   E  E.  S E  E   E   
----------------------------|-------------------9--7------|
----------------------7--9--|--10--9--10--7-----------10--|
-----6---6---6-----6--------|-----------------------------|
----------------------------|-----------------------------|
----------------------------|-----------------------------|
----------------------------|-----------------------------|


  E  E  E  Q    E  E  E     E   E   E   Q     E  E  E     H        E  E  E  E   
--7--5--7-------5--------|-------------12----10--9--7--|--9--------------------|
-----------7-------9--7--|-----------------------------|-----------------7--9--|
-------------------------|--9--11--13------------------|--------------6--------|
-------------------------|-----------------------------|-----------------------|
-------------------------|-----------------------------|-----------------------|
-------------------------|-----------------------------|-----------------------|


   E  E   E  E.  S E  E  E     E  E  E  Q     E  E  E   
-------------------9--7--5--|--7--5--7-----------------|
--10--9--10--7--------------|-----------7----10--9--7--|
----------------------------|--------------------------|
----------------------------|--------------------------|
----------------------------|--------------------------|
----------------------------|--------------------------|


  E   E   E   Q     E  E  E     H        E   S S  S S  S  S  
-------------12----10--9--7--|--9---------------------------|
-----------------------------|----------------------9-10-12-|
--9--11--13------------------|-----------------9-11---------|
-----------------------------|--------------11--------------|
-----------------------------|------------------------------|
-----------------------------|------------------------------|


   E  S  E  S  E  S  E  S S  S S  S     E  S  E  S  E  S  E  S S  S S  S  
--------------------------7---------|--------------------------7---------|
--10--9-10--7-10--9-10--7---10-9-10-|--10--9-10--7-10--9-10--7---10-9-10-|
------------------------------------|------------------------------------|
------------------------------------|------------------------------------|
------------------------------------|------------------------------------|
------------------------------------|------------------------------------|


   E   S  E  S  E   S  E  S  S  S  S S  
---------------------------------------|
--12--10-12--9-12--10-12--9-14-12-10-9-|
---------------------------------------|
---------------------------------------|
---------------------------------------|
---------------------------------------|


   S S  S  S  S  S S  S  S  S  S S  E   E   
-------------------------------------------|
-----------------------------------14--12--|
--11-9-------11----9-11-14-13-11-9---------|
-------11-12----11-------------------------|
-------------------------------------------|
-------------------------------------------|


   E  S  E  S  E  S  E  S S  S S  S     E  S  E  S  E  S  E  S S  S S  S  
--------------------------7---------|--------------------------7---------|
--10--9-10--7-10--9-10--7---10-9-10-|--10--9-10--7-10--9-10--7---10-9-10-|
------------------------------------|------------------------------------|
------------------------------------|------------------------------------|
------------------------------------|------------------------------------|
------------------------------------|------------------------------------|


   E   S  E  S  E   S  E  S  S  S  S S  
---------------------------------------|
--12--10-12--9-12--10-12--9-14-12-10-9-|
---------------------------------------|
---------------------------------------|
---------------------------------------|
---------------------------------------|


   S S  S  S  S  S S  S  S  S  S S  E   E     E  E  E  E  S E  S E  E   
-------------------------------------------|-----5-----7------------9--|
-----------------------------------14--12--|--7-----7-----5-7--5-7-----|
--11-9-------11----9-11-14-13-11-9---------|---------------------------|
-------11-12----11-------------------------|---------------------------|
-------------------------------------------|---------------------------|
-------------------------------------------|---------------------------|


  S S S S E  E   E  E  E  E     E  E  E  E  S E  S E  E   
-----------------------------|--------7---------------9--|
--7-7-7-7-7--9--10--9--7-----|--9--7-----9--7-9--7-9-----|
-----------------------------|---------------------------|
-----------------------------|---------------------------|
-----------------------------|---------------------------|
-----------------------------|---------------------------|


  S S S S E   E  E   E  E  E     E  E  E  E  S E  S E  E   
-----------------7------------|-----5-----7------------9--|
--9-9-9-9-9--10-----10--9-----|--7-----7-----5-7--5-7-----|
------------------------------|---------------------------|
------------------------------|---------------------------|
------------------------------|---------------------------|
------------------------------|---------------------------|


  S S S S E  E   E  E  E  E     E  E  E  E  S E  S E  E   
-----------------------------|--------7---------------9--|
--7-7-7-7-7--9--10--9--7-----|--9--7-----9--7-9--7-9-----|
-----------------------------|---------------------------|
-----------------------------|---------------------------|
-----------------------------|---------------------------|
-----------------------------|---------------------------|


  S S S S E   E  E  E  E  E     Q    Q    Q    Q     
-----------------7--5--4-----|----------------------|
--9-9-9-9-9--10--------------|--7----5--------------|
-----------------------------|------------7----6----|
-----------------------------|----------------------|
-----------------------------|----------------------|
-----------------------------|----------------------|


  E  S S S S S E.  E  E  E      E  E   E  E.  S E  E   E   
----------------------------|-------------------9--7------|
----------------------7--9--|--10--9--10--7-----------10--|
-----6---6---6-----6--------|-----------------------------|
----------------------------|-----------------------------|
----------------------------|-----------------------------|
----------------------------|-----------------------------|


  E  E  E  Q    E  E  E     E   E   E   Q     E  E  E     H        E  E  E  E   
--7--5--7-------5--------|-------------12----10--9--7--|--9-----------------|
-----------7-------9--7--|-----------------------------|--------------7--9--|
-------------------------|--9--11--13------------------|-----------6--------|
-------------------------|-----------------------------|--------------------|
-------------------------|-----------------------------|--------------------|
-------------------------|-----------------------------|--------------------|


   E  E   E  E.  S E  E  E     E  E  E  Q     E  E  E   
-------------------9--7--5--|--7--5--7-----------------|
--10--9--10--7--------------|-----------7----10--9--7--|
----------------------------|--------------------------|
----------------------------|--------------------------|
----------------------------|--------------------------|
----------------------------|--------------------------|


  E   E   E   Q     E  E  E     H        E   S S  S S  S  S  
-------------12----10--9--7--|--9---------------------------|
-----------------------------|----------------------9-10-12-|
--9--11--13------------------|-----------------9-11---------|
-----------------------------|--------------11--------------|
-----------------------------|------------------------------|
-----------------------------|------------------------------|


   E  S  E  S  E  S  E  S S  S S  S     E  S  E  S  E  S  E  S S  S S  S  
--------------------------7---------|--------------------------7---------|
--10--9-10--7-10--9-10--7---10-9-10-|--10--9-10--7-10--9-10--7---10-9-10-|
------------------------------------|------------------------------------|
------------------------------------|------------------------------------|
------------------------------------|------------------------------------|
------------------------------------|------------------------------------|


   E   S  E  S  E   S  E  S  S  S  S S  
---------------------------------------|
--12--10-12--9-12--10-12--9-14-12-10-9-|
---------------------------------------|
---------------------------------------|
---------------------------------------|
---------------------------------------|


   S S  S  S  S  S S  S  S  S  S S  E   E   
-------------------------------------------|
-----------------------------------14--12--|
--11-9-------11----9-11-14-13-11-9---------|
-------11-12----11-------------------------|
-------------------------------------------|
-------------------------------------------|


   E  S  E  S  E  S  E  S S  S S  S     E  S  E  S  E  S  E  S S  S S  S  
--------------------------7---------|--------------------------7---------|
--10--9-10--7-10--9-10--7---10-9-10-|--10--9-10--7-10--9-10--7---10-9-10-|
------------------------------------|------------------------------------|
------------------------------------|------------------------------------|
------------------------------------|------------------------------------|
------------------------------------|------------------------------------|


   E   S  E  S  E   S  E  S  S  S  S S  
---------------------------------------|
--12--10-12--9-12--10-12--9-14-12-10-9-|
---------------------------------------|
---------------------------------------|
---------------------------------------|
---------------------------------------|


   S S  S  S  S  S S  S  S  S  S S  E   E     
--------------------------------------------||
-----------------------------------14--12---||
--11-9-------11----9-11-14-13-11-9---------*||
-------11-12----11-------------------------*||
--------------------------------------------||
--------------------------------------------||
Добавлено: 12.06.2012
Другие материалы по этой песне:

Страница создана 04.05.2012
http://primanota.ru/misc-computer-games/ninja-gaiden-act-4-stage-2-chords.htm
Привет, Гость.
Предлагаем пройти революционный курс по гитаре.
Подарок от PrimaNota.Ru, забирай!