PrimaNota.ru - самый крупный в мире бесплатный архив песенных текстов, аккордов, табулатур и нот


Misc Computer Games - Monster Party - Stage 1 Bloody - таба, бас-таба, видео

Регистрация Запомнить меня
Войти через:  Facebook Google Twitter Vk Yandex Mail.ru

Misc Computer Games - Monster Party - Stage 1 Bloody - таба, бас-таба, видео

Печатать
Просмотров: 68
Gtr I (E A D G B E) 
Gtr II (E A D G B E) 

  Q=240
  Gtr I
   W              +H      H      W              +H     H
|--------------|---------------|-------------|--------------|
|--------------|---------------|-------------|--------------|
|--------------|---------------|-------------|--------------|
|-10-----------|-(10)----10----|-9-----------|--(9)----9----|
|--------------|---------------|-------------|--------------|
|--------------|---------------|-------------|--------------|
|
| Gtr II
|  Q  H     Q     +H      H      Q  H     Q     +H     H
|--------------|---------------|-------------|--------------|
|--------------|---------------|-------------|--------------|
|----------10--|-(10)----------|---------10--|-(10)---------|
|--------------|---------------|-------------|--------------|
|--------------|---------------|-------------|--------------|
|--------------|---------------|-------------|--------------|


  W              +H     H      W              +H     H
|-------------|--------------|-------------|--------------|
|-------------|--------------|-------------|--------------|
|-------------|--------------|-------------|--------------|
|-8-----------|--(8)----8----|-7-----------|--(7)----7----|
|-------------|--------------|-------------|--------------|
|-------------|--------------|-------------|--------------|
|
| Q  H     Q     +H     H      Q  H     Q     +H     H
|-------------|--------------|-------------|--------------|
|-------------|--------------|-------------|--------------|
|---------10--|-(10)---------|---------10--|-(10)---------|
|-------------|--------------|-------------|--------------|
|-------------|--------------|-------------|--------------|
|-------------|--------------|-------------|--------------|


  H      +Q    Q    +H       H         H        +Q    Q    +H       E E  E  E
|-----------------|-----------------|--------------------|--------------------|
|-----------------|-----------------|--------------------|--------------------|
|-----------------|----------9------|-----------------8--|-(8)----------------|
|-6------(6)---9--|-(9)-------------|--------------------|----------8-8-------|
|-----------------|-----------------|-10-------(10)------|--------------10-10-|
|-----------------|-----------------|--------------------|--------------------|
|
| Q  E E  Q    Q     E  E Q  E E Q     Q   E E   Q    Q     E  E Q  E E  Q
|-----------------|-----------------|--------------------|--------------------|
|-----------------|-----------------|--------------------|--------------------|
|-----------------|-----------------|--------------------|--------------------|
|-----------------|----------9------|--------------------|----------8---------|
|-7--7--------10--|-10--------------|----------------10--|-10-----------------|
|-----------------|-----------------|-11--11-------------|--------------------|


  E E E E E E E E   E E E E E E E E   E E E E E E E E   E E E E E E E E
|-----------------|-----------------|-----------------|-----------------|
|-----------------|-----------------|-----------------|-----------------|
|-----------------|-----------------|-----------------|-----------------|
|-7-7-7-7-7-7-7-7-|-7-7-7-7-7-7-7-7-|-7-7-7-7-7-7-7-7-|-7-7-7-7-7-7-7-7-|
|-----------------|-----------------|-----------------|-----------------|
|-----------------|-----------------|-----------------|-----------------|
|
| E E E E E E E E   E E E E E E E E   E E E E E E E E   E E E E E E E E
|-----------------|-----------------|-----------------|-----------------|
|-----------------|-----------------|-----------------|-----------------|
|-----------------|-----------------|-----------------|-----------------|
|-------------5-5-|-------------5-5-|-------------5-5-|-------------5-5-|
|-5-5-7-7-8-8-----|-5-5-7-7-8-8-----|-5-5-7-7-8-8-----|-5-5-7-7-8-8-----|
|-----------------|-----------------|-----------------|-----------------|


Добавлено: 31.05.2015
Другие материалы по этой песне:

Страница создана 19.10.2014
http://primanota.ru/misc-computer-games/monster-party-stage-1-bloody-chords.htm
Привет, Гость.
Предлагаем пройти революционный курс по гитаре.
Подарок от PrimaNota.Ru, забирай!