PrimaNota.ru - самый крупный в мире бесплатный архив песенных текстов, аккордов, табулатур и нот


Misc Computer Games - Metal Slug 6 - The Military System - таба, видео

Регистрация Запомнить меня
Войти через:  Facebook Google Twitter Vk Yandex Mail.ru

Misc Computer Games - Metal Slug 6 - The Military System - таба, видео

Печатать
Просмотров: 58
Новый альбом группы 'Черный Кузнец' по культовому сериалу 'Сверхъестественное'!
the military system *metal slug anthology wii music 1 menu*


metal slug



feliz cumpleaños princesa mariposa
jueves para celebrar, muy merecido!
2017


                                                 
e:-------------------------------------------------|
B:-------------------------------------------------|
G:-------------------------------------------------|
D:------------------------------------------2ah~~~-|
A:-2-2-2-2-2--2-2-2-2-2--2-2-2-2-2-----------------|
E:-0-0-0-0-0--0-0-0-0-0--0-0-0-0-0--0-0-0----------|

e:-------------------------------------------------------|
B:-------------------------------------------------------|
G:-------------------------------------------------------|
D:------------------------------------------------2ah~~~-|
A:-2--2-2-2--2-2--2-2-2-2--2-2--2-2-2--2-2--2-2-2--------|
E:-0--0-0-0--0-0--0-0-0-0--0-0--0-0-0--0-0--0-0-0--------|

e:-----------------------------------------------------|
B:-----------------------------------------------------|
G:-----------------------------------------------------|
D:-------------------------------------------------5-4-|
A:-2--2-2-2--2-2--2-2-2-2--2-2--2-2-2--2-2--2-2-2--3-2-|
E:-0--0-0-0--0-0--0-0-0-0--0-0--0-0-0--0-0--0-0-0------|

e:-------------------------------------------------------|
B:-------------------------------------------------------|
G:-------------------------------------------------------|
D:------------------------------------------------2ah~~~-|
A:-2--2-2-2--2-2--2-2-2-2--2-2--2-2-2--2-2--2-2-2--------|
E:-0--0-0-0--0-0--0-0-0-0--0-0--0-0-0--0-0--0-0-0--------|

e:-----------------------------------------------------|
B:-----------------------------------------------------|
G:-----------------------------------------------------|
D:-------------------------------------------------5-4-|
A:-2--2-2-2--2-2--2-2-2-2--2-2--2-2-2--2-2--2-2-2--3-2-|
E:-0--0-0-0--0-0--0-0-0-0--0-0--0-0-0--0-0--0-0-0------|

e:-------------------------------------------------|
B:-------------------------------------------------|
G:-------------------------------------------------|
D:------------------------------------------2ah~~~-|
A:-2-2-2-2-2--2-2-2-2-2--2-2-2-2-2-----------------|
E:-0-0-0-0-0--0-0-0-0-0--0-0-0-0-0--0-0-0----------|



hillo son mex

16/01/17

*02/02/17
Добавлено: 23.07.2017
Другие материалы по этой песне:

Страница создана 03.04.2012
http://primanota.ru/misc-computer-games/metal-slug-6-the-military-system-chords.htm
Привет, Гость.
Предлагаем пройти революционный курс по гитаре.
Подарок от PrimaNota.Ru, забирай!