PrimaNota.ru - самый крупный в мире бесплатный архив песенных текстов, аккордов, табулатур и нот


Misc Computer Games - Metal Gear Solid 2 - таба, видео

Регистрация Запомнить меня
Войти через:  Facebook Google Twitter Vk Yandex Mail.ru

Misc Computer Games - Metal Gear Solid 2 - таба, видео

Печатать
Просмотров: 105
Metal Gear Solid 2 Theme by Harry Gregson Williams

Although it is played by a whole orchestra, this is the tune:
E----------------------------------------------------------|
B----------------------------------------------------------|
G----------------------------------------------------------|
D-2-2--3---------------------------------------------------|
A-0-0--1---------------------------------------------------|
E----------------------------------------------------------|

E----------------------------------------------------------|
B----------------------------------------------------------|
G----------------------------------------------------------|
D-4-4--5---------------------------------------------------|
A-2-2--3---------------------------------------------------|
E----------------------------------------------------------|

E----------------------------------------------------------|
B----------------------------------------------------------|
G----------------------------------------------------------|
D-7-5-3--5-7-3-7-5-----------------------------------------|
A----------------------------------------------------------|
E----------------------------------------------------------|

E----------------------------------------------------------|
B----------------------------------------------------------|
G-----5--7-5-----------------------------------------------|
D-3-7--------7-3-5-----------------------------------------|
A----------------------------------------------------------|
E----------------------------------------------------------|

E----------------------------------------------------------|
B-----6--5-6--8-6------------------------------------------|
G---5-------------7----------------------------------------|
D-7--------------------------------------------------------|
A----------------------------------------------------------|
E----------------------------------------------------------|

E----------------------------------------------------------|
B----------------------------------------------------------|
G-----5--6-5-3--1-3----------------------------------------|
D-5-7------------------------------------------------------|
A----------------------------------------------------------|
E----------------------------------------------------------|

This tab is all my own work. Tabbed by Peter Chapman.

Any questions or corrections to Egg5000000@hotmail.com
     
Добавлено: 10.11.2013
Другие материалы по этой песне:

Страница создана 30.04.2012
http://primanota.ru/misc-computer-games/metal-gear-solid-2-chords.htm
Привет, Гость.
Предлагаем пройти революционный курс по гитаре.
Подарок от PrimaNota.Ru, забирай!