PrimaNota.ru - самый крупный в мире бесплатный архив песенных текстов, аккордов, табулатур и нот


Misc Computer Games - Megaman Zero 2 - Passionate - таба, видео

Регистрация Запомнить меня
Войти через:  Facebook Google Twitter Vk Yandex Mail.ru

Misc Computer Games - Megaman Zero 2 - Passionate - таба, видео

Печатать
Просмотров: 102
Новый альбом группы 'Черный Кузнец' по культовому сериалу 'Сверхъестественное'!
(Bass Line)
G|---------------------------------------------------------------------|
D|---------------------------------------------------------------------|
A|---------------------------------------------------------------------|
E|-3---0---3---0--3-0--3---0---3---0--3-0--3---0---3---0--3-0----------|

(Main Theme)


e|-------------------------------------------------------------|
B|------------------------------------------------------8-7----|
G|------------------------------------------------------7-7----| X2
D|-------------------------------------------------------------|
A|-2-0-0-2-0-2-0-2-2-0--2-0-0-2-2-0-2--7-5-----2-0-0-2---------|
E|-0-0-0-0-0-0-0-0-0-0--0-0-0-0-0-0-0--5-3-----0-0-0-0---------|

e|-----------------------------------------|                                     
B|-12--------------------------------------|
G|-12--9-12-11--7--9-6-9--12---------------|
D|---------------------------9-------------|
A|-----------------------------------------|
E|-----------------------------------------| 






e|-----------------------------------------|                                     
B|-12------------------------14------------|
G|-12--9-12-11--7--9-6-9--12---------------|
D|-----------------------------------------|
A|-----------------------------------------|
E|-----------------------------------------| 

e|-------------------------------------------------|
B|-------------------------------------------------|
G|-------------------------------------------------|
D|-9--11--12--16--17--16--14h12h11--7-6-5----------|
A|-------------------------------------------------|
E|-------------------------------------------------|

e|------------------------------------------------------------------12---|
B|------------------------------------10-12-13-12-8--10--12-10-8-7-5-----|
G|-----------------------------14--18------------------------------------|
D|-9--11--12--16--17---16--14h12-----------------------------------------|
A|-----------------------------------------------------------------------|
E|-----------------------------------------------------------------------|

e|-----------------------7--14--------------|
B|-10-12-13-12-8--10--12-------15-----------|
G|--------------------------------16--------|
D|------------------------------------------|
A|------------------------------------------|
E|------------------------------------------|

e|----------------------------12-12---------------|
B|-10-12-13-12-8--10--12--10--15-15--14-----------|
G|-----------------------------------14-----------|
D|------------------------------------------------|
A|------------------------------------------------|
E|------------------------------------------------|
Добавлено: 12.08.2014
Другие материалы по этой песне:
  • Аккорды и текст

Страница создана 12.08.2014
http://primanota.ru/misc-computer-games/megaman-zero-2-passionate-chords.htm
Привет, Гость.
Предлагаем пройти революционный курс по гитаре.
Подарок от PrimaNota.Ru, забирай!