PrimaNota.ru - самый крупный в мире бесплатный архив песенных текстов, аккордов, табулатур и нот


Misc Computer Games - Megaman 2 - Bubble Man - таба, бас-таба, видео

Регистрация Запомнить меня
Войти через:  Facebook Google Twitter Vk Yandex Mail.ru

Misc Computer Games - Megaman 2 - Bubble Man - таба, бас-таба, видео

Печатать
Просмотров: 169
Уроки эстрадного вокала в Санкт-Петербурге
Megaman 2 - Bubbleman

Gtr I (E A D G B E) 
Gtr II (B E A D G B E)

  Q=180
  Gtr I
  H       Q   E E   +H        +Q    +E  E
|-----------------|-----------------------|
|-----------------|-----------------------|
|-----------------|-----------------------|
|-5-------6---8-5-|-(5)-------(5)---(5)---|
|-----------------|-----------------------|
|-----------------|-----------------------|
|
| Gtr II
| E E E E E E E E    E  E E E  E  E  E  E
|-----------------|-----------------------|
|-----------------|-----------------------|
|-----------------|-----------------------|
|---5-----5-------|--5---------5--------5-|
|-----6-----3-6---|-----6---6--------6----|
|---------------4-|-----------------------|
|-4-----4---------|-------4-------4-------|


  H       Q   E E    E  E Q    E  E Q
|-----------------|-10-10-----10-10-----|
|-----------------|--8--8------8--8-----|
|-----------------|---------------------|
|-3-------3---5---|---------------------|
|-----------------|---------------------|
|---------------5-|---------------------|
|
| E E E E E E E E    E  E E E  E  E E E
|-----------------|---------------------|
|-----------------|---------------------|
|-----------------|---------------------|
|---3-----3-------|--3---------3------3-|
|-----5-------5---|-----5---5-------5---|
|-----------6---3-|---------------------|
|-3-----3---------|-------3-------3-----|


  H       Q   E E   +H        +Q    +E  E
|-----------------|-----------------------|
|-----------------|-----------------------|
|-----------------|-----------------------|
|-5-------6---8-5-|-(5)-------(5)---(5)---|
|-----------------|-----------------------|
|-----------------|-----------------------|
|
| E E E E E E E E    E  E E E  E  E  E  E
|-----------------|-----------------------|
|-----------------|-----------------------|
|-----------------|-----------------------|
|---5-----5-------|--5---------5--------5-|
|-----6-----3-6---|-----6---6--------6----|
|---------------4-|-----------------------|
|-4-----4---------|-------4-------4-------|


  H       Q   E E    E  E Q    E  E Q
|-----------------|-10-10-----10-10-----|
|-----------------|--8--8------8--8-----|
|-----------------|---------------------|
|-3-------3---5---|---------------------|
|-----------------|---------------------|
|---------------5-|---------------------|
|
| E E E E E E E E    E  E E E  E  E E E
|-----------------|---------------------|
|-----------------|---------------------|
|-----------------|---------------------|
|---3-----3-------|--3---------3------3-|
|-----5-------5---|-----5---5-------5---|
|-----------6---3-|---------------------|
|-3-----3---------|-------3-------3-----|


   Q  E  E E E E  E    Q  E  E E E E  E
|-------------------|-------------------|
|-------------------|-------------------|
|-------------------|-------------------|
|-10----10---8---10-|-10----10---8---10-|
|-------------------|-------------------|
|-------------------|-------------------|
|
|  Q  E  E E E E  E    Q  E  E E E E  E
|-------------------|-------------------|
|-------------------|-------------------|
|-------------------|-------------------|
|-------------------|-------------------|
|-------------------|-------------------|
|--8-----8---6----8-|--8-----8---6----8-|
|-------------------|-------------------|


   Q  E  E E  E E  E    Q  E  E E  E E  E
|--------------------|--------------------|
|--------------------|--------------------|
|--------------------|--------------------|
|-12----12---10---12-|-12----12---10---12-|
|--------------------|--------------------|
|--------------------|--------------------|
|
|  Q  E  E E  E E  E    Q  E  E E  E E  E
|--------------------|--------------------|
|--------------------|--------------------|
|--------------------|--------------------|
|--------------------|--------------------|
|--------------------|--------------------|
|-10----10----8---10-|-10----10----8---10-|
|--------------------|--------------------|


   Q  E  E E E E  E    Q  E  E E E E  E
|-------------------|-------------------|
|-------------------|-------------------|
|-------------------|-------------------|
|-10----10---8---10-|-10----10---8---10-|
|-------------------|-------------------|
|-------------------|-------------------|
|
|  Q  E  E E E E  E    Q  E  E E E E  E
|-------------------|-------------------|
|-------------------|-------------------|
|-------------------|-------------------|
|-------------------|-------------------|
|-------------------|-------------------|
|--8-----8---6----8-|--8-----8---6----8-|
|-------------------|-------------------|


   Q  E  E E  E E  E   Q  E  E E E E  E
|--------------------|------------------|
|--------------------|------------------|
|--------------------|------------------|
|-12----12---10---12-|-9----12---9---12-|
|--------------------|------------------|
|--------------------|------------------|
|
|  Q  E  E E  E E  E   Q  E  E E E E  E
|--------------------|------------------|
|--------------------|------------------|
|--------------------|------------------|
|--------------------|------------------|
|--------------------|------------------|
|-10----10----8---10-|-7----10---7---10-|
|--------------------|------------------|


  H    E  E E E   E  E E E E E  Q    E E E E E  E E E   +Q   +E   Q   +E  Q
|---------------|------------------|------------------|----------------------|
|-------------8-|------------------|------------------|----------11--(11)-9--|
|-8----8-10-----|---10---8---8-10--|-7-8---7----------|----------------------|
|---------------|------------------|-----------10---8-|-(8)--(8)-------------|
|---------------|------------------|------------------|----------------------|
|---------------|------------------|------------------|----------------------|
|
| Gtr II
| H    E  E E E   E  E E E E E  Q    E E E E E  E E E   +Q   +E   Q   +E  Q
|---------------|------------------|------------------|----------------------|
|---------------|------------------|------------------|----------------------|
|---------------|------------------|------------------|----------------------|
|-------------5-|------------------|------------------|-----------8---(8)-7--|
|-6----6--8-----|----8---6---6--8--|-5-6---5----------|----------------------|
|---------------|------------------|------------8---6-|-(6)--(6)-------------|
|---------------|------------------|------------------|----------------------|


  H    E  E E  E   E E E Q  +E  E E   +H     +E  E E  E    +W
|----------------|--------------8-7-|-(7)----(7)---7-10-|-(10)----|
|-8----8------11-|---9---8--(8)-----|------------8------|---------|
|--------10-8----|------------------|-------------------|---------|
|----------------|------------------|-------------------|---------|
|----------------|------------------|-------------------|---------|
|----------------|------------------|-------------------|---------|
|
| Gtr II
| H    E  E E  E   E E E Q  +E  E E   +H     +E  E E  E    +W
|----------------|------------------|-------------------|---------|
|----------------|------------------|-------------------|---------|
|----------------|--------------5-4-|-(4)----(4)---4--7-|--(7)----|
|-5----5-------8-|---6---5--(5)-----|------------5------|---------|
|---------8-6----|------------------|-------------------|---------|
|----------------|------------------|-------------------|---------|
|----------------|------------------|-------------------|---------|


  Q  E E Q  +E  E   E E Q  +E  E E E   Q       E   Q       Q       E
|-----------------|------------------|---------------------------------|
|-----------------|------------------|---------------------------------|
|-----------------|------------------|-------------3-------------------|
|-5----3-3--(3)---|---3-3--(3)-----3-|-5-------3-----------6-------5---|
|---------------6-|------------3-6---|---------------------------------|
|-----------------|------------------|---------------------------------|
|
| Gtr II
|                                      T T T T T T T T T T T T T T T T
| Q  E E Q  +E  E   E E Q  +E  E E E   S S S S S S S S S S S S S S S S
|-----------------|------------------|-4-----8-4-----8-4-----8-4-----8-|
|-----------------|------------------|---------------------------------|
|-----------------|------------------|---8-5-----8-5-----8-5-----8-5---|
|-----------------|------------------|---------------------------------|
|-6----5-5--(5)-3-|---5-5--(5)---3-5-|---------------------------------|
|-----------------|------------4-----|---------------------------------|
|-----------------|------------------|---------------------------------|


  +E    Q       Q       Q       E
|--------------------------------------|
|--------------------------------------|
|--------------------------------------|
|-(5)---3------------------------------|
|---------------6-------5--------------|
|--------------------------------------|
|
|  T  T T T T T T T T T T T T T T T
|  S  S S S S S S S S S S S S S S S
|--------------------------------------|
|--8--3-----8-3-----8-3-----8-3--------|
|--------------------------------------|
|-------9-5-----9-5-----9-5-----9-5----|
|--------------------------------------|
|--------------------------------------|
|--------------------------------------|


  Q  E E Q  +E  E   E E Q  +E  E E E   Q       E   Q       Q       E
|-----------------|------------------|---------------------------------|
|-----------------|------------------|---------------------------------|
|-----------------|------------------|-------------3-------------------|
|-5----3-3--(3)---|---3-3--(3)-----3-|-5-------3-----------6-------5---|
|---------------6-|------------3-6---|---------------------------------|
|-----------------|------------------|---------------------------------|
|
|                                      T T T T T T T T T T T T T T T T
| Q  E E Q  +E  E   E E Q  +E  E E E   S S S S S S S S S S S S S S S S
|-----------------|------------------|-4-----8-4-----8-4-----8-4-----8-|
|-----------------|------------------|---------------------------------|
|-----------------|------------------|---8-5-----8-5-----8-5-----8-5---|
|-----------------|------------------|---------------------------------|
|-6----5-5--(5)-3-|---5-5--(5)---3-5-|---------------------------------|
|-----------------|------------4-----|---------------------------------|
|-----------------|------------------|---------------------------------|


  +E    Q       Q       Q       E
|--------------------------------------|
|-----------------------6-------8------|
|-------4-------7----------------------|
|-(5)----------------------------------|
|--------------------------------------|
|--------------------------------------|
|
|  T  T T T T T T T T T T T T T T T
|  S  S S S S S S S S S S S S S S S
|--------------------------------------|
|--8--3-----8-3-----8-3-----8-3--------|
|--------------------------------------|
|-------9-5-----9-5-----9-5-----9-5----|
|--------------------------------------|
|--------------------------------------|
|--------------------------------------|


Добавлено: 31.05.2015
Другие материалы по этой песне:

Страница создана 17.06.2013
http://primanota.ru/misc-computer-games/megaman-2-bubble-man-chords.htm
Привет, Гость.
Предлагаем пройти революционный курс по гитаре.
Подарок от PrimaNota.Ru, забирай!