PrimaNota.ru - самый крупный в мире бесплатный архив песенных текстов, аккордов, табулатур и нот


Misc Computer Games - Mario Party - Minigame Insructions - таба, видео

Регистрация Запомнить меня
Войти через:  Facebook Google Twitter Vk Yandex Mail.ru

Misc Computer Games - Mario Party - Minigame Insructions - таба, видео

Печатать
Просмотров: 74
Новый альбом группы 'Черный Кузнец' по культовому сериалу 'Сверхъестественное'!
e--2-2----3-3---|
B--3-3----3-3---|
G--2-2----2-2---|
D--0-0----0-0---|
A---------------|
E---------------|

e-5--5-5-3-2---0---0-|
B----------------3---|
G--------------------|
D--------------------|
A--------------------|
E--------------------|

e-0---0-----0---0---0---2-0--------|
B---3-----3---3---3----------------|
G----------------------------------|
D----------------------------------|
A----------------------------------|
E----------------------------------|

e---5--3-2-0-2----|
B-----------------|
G-2------------2--|
D-----------------|
A-----------------|
E-----------------|

e---5--3-2-0------|
B------------3----|
G-2---------------|
D-----------------|
A-----------------|
E-----------------|

e-0-2-3-4-5-----5-|
B-----------------|
G-----------------|
D-----------------|
A-----------------|
E-----------------|

e-10-10-10---10-9--10------------9------|
B-----------------------10-9-10----10---|
G----------7----------7---------------7-|
D---------------------------------------|
A---------------------------------------|
E---------------------------------------|

e-----------5-6--7-8--9-10-11-12-13-14-|
B-6-7--8-9-----------------------------|
G--------------------------------------|
D--------------------------------------|
A--------------------------------------|
E--------------------------------------|

e-10-9--------------10-9-|
B------10--7-8-10--------|
G------------------------|
D------------------------|
A------------------------|
E------------------------|
Добавлено: 14.06.2018
Другие материалы по этой песне:
  • Аккорды и текст

Страница создана 14.06.2018
http://primanota.ru/misc-computer-games/mario-party-minigame-insructions-chords.htm
Привет, Гость.
Предлагаем пройти революционный курс по гитаре.
Подарок от PrimaNota.Ru, забирай!