PrimaNota.ru - самый крупный в мире бесплатный архив песенных текстов, аккордов, табулатур и нот


Misc Computer Games - Mario And Luigi Partners In Time - Holi Joli Village - бас-таба

Регистрация Запомнить меня
Войти через:  Facebook Google Twitter Vk Yandex Mail.ru

Misc Computer Games - Mario And Luigi Partners In Time - Holi Joli Village - бас-таба

Печатать
Просмотров: 132
Mario and Luigi: Partner's In Time - Holi Joli Village

Tabbed by: XxThreeCheersxX
E-mail: phantomhiveghost@gmail.com

Tuning: Standard

Part A
G|---------------------------------------|
D|-4--4--4~---3--3--3~---3--0-----0--1~--|
A|-----------------------------1---------|
E|---------------------------------------|

G|---------------------------------------|
D|-4--4--4~---3--3--3~---3--4--3-----1~--|
A|--------------------------------1------|
E|---------------------------------------|

Part B
G|-----------1--2~--------1~---------2--3---------|
D|-4--4-1-4----------3~--------4--3--------4~-----|
A|------------------------------------------------|
E|------------------------------------------------|

G|-3~----6~----5--2--3-----2--3--------|
D|----------------------4--------1~----|
A|-------------------------------------|
E|-------------------------------------|

Repeat as much as you want.
Happy playing!
If you have any suggestions or corrections, comment or email me.
Добавлено: 22.08.2013
Другие материалы по этой песне:
  • Аккорды и текст

Страница создана 22.08.2013
http://primanota.ru/misc-computer-games/mario-and-luigi-partners-in-time-holi-joli-village-chords.htm
Привет, Гость.
Предлагаем пройти революционный курс по гитаре.
Подарок от PrimaNota.Ru, забирай!