PrimaNota.ru - самый крупный в мире бесплатный архив песенных текстов, аккордов, табулатур и нот


Misc Computer Games - Mario 2 six golden coins - таба, видео

Регистрация Запомнить меня
Войти через:  Facebook Google Twitter Vk Yandex Mail.ru

Misc Computer Games - Mario 2 six golden coins - таба, видео

Печатать
Просмотров: 92



Date: Fri, 08 Oct 2004 11:15:00 -0400
From: el scorcho 
Subject: m/misc_comp_games/mario_2_six_golden_coins.tab


Mario 2, 6 Golden Coins, File Selection Screne
==============================================
Composed by:Koji Kondo
Tabbed by Pollock
(hammer ons/pull offs optional)

e|-----------------------------------------------------
B|-----------------------------------------------------
G|-----4--7--6--5-----------------------5h4------------
D|--5--------------7--4------------7-7------5----------
A|---------------------------5p4h5------------7-5------
E|-----------------------------------------------------

e|-----------------------------------------------------
B|----------------------5--5-4-5-7----5------5---------
G|----------------4---4-------------7----6-7----5-7--4~
D|--------5--5h7----7----------------------------------
A|--7-5h7----------------------------------------------
E|-----------------------------------------------------

e|-----------------------------------------------------
B|-----------------------------------------------------
G|-----4--7--6--5-----------------------5h4------------
D|--5--------------7--4------------7-7------5----------
A|---------------------------5p4h5------------7-5------
E|-----------------------------------------------------

e|-----------------------------------------------------
B|----------------------5--5---------------------------
G|----------------4---4------4--------7--7-------------
D|--------5--5h7----7-----------7-5h7------4-5---------
A|--7-5h7----------------------------------------------
E|-----------------------------------------------------

(come in on the off-beat)

e|--------------------------------------------
B|--------------------------------------------
G|--------------------------------------------
D|--------------------------------------------
A|-------2p0--------2p0-------2p0--------2p0--
E|----3-------0--3---------3-------0--3-------

e|--------------------------------------------
B|--------------------------------------------
G|--------------------------------------------
D|--------------------------------------------
A|-------2p0--------2p0-------2p0-------------
E|----3-------0--3---------3-------0--3-------

(back to start)

Thats it, give'r.
Questions:turbo__geek@hotmail.com


________________________________________________________________________________


Добавлено: 10.12.2013
Другие материалы по этой песне:
  • Аккорды и текст

Страница создана 10.12.2013
http://primanota.ru/misc-computer-games/mario-2-six-golden-coins-chords.htm
Привет, Гость.
Предлагаем пройти революционный курс по гитаре.
Подарок от PrimaNota.Ru, забирай!