PrimaNota.ru - самый крупный в мире бесплатный архив песенных текстов, аккордов, табулатур и нот


Misc Computer Games - Little Nemo The Dream Master Level 1 - Mushroom Forest - таба, бас-таба, видео

Регистрация Запомнить меня
Войти через:  Facebook Google Twitter Vk Yandex Mail.ru

Misc Computer Games - Little Nemo The Dream Master Level 1 - Mushroom Forest - таба, бас-таба, видео

Печатать
Просмотров: 110
Gtr I (E A D G B E)
Gtr II (E A D G B E)

  Q=240
  Gtr I
   W           +H     +E  E  E E   Q  +E  H    +E    +H     Q   Q
|-----------|--------------------|-----------------|---------------|
|-----------|--------------------|-----------------|---------------|
|-----------|--------------------|-----------------|---------------|
|--8--------|--(8)----(8)-8-10-8-|-7--(7)----------|---------------|
|-----------|--------------------|--------8----(8)-|-(8)----8--10--|
|-----------|--------------------|-----------------|---------------|
|
| Gtr II
|  W           +W                  Q  +E  H    +E    +H     Q   Q
|-----------|--------------------|-----------------|---------------|
|-----------|--------------------|-----------------|---------------|
|-----------|--------------------|-----------------|---------------|
|-----------|--------------------|-----------------|---------------|
|-10--------|-(10)---------------|-8--(8)----------|---------------|
|-----------|--------------------|--------5----(5)-|-(5)----5---8--|


  W          +H     +E  E E E   Q  +E  H    +E    +W
|----------|------------------|-----------------|--------|
|----------|------------------|-----------------|--------|
|----------|------------------|--------8----(8)-|-(8)----|
|-6--------|-(6)----(6)-6-8-6-|-5--(5)----------|--------|
|----------|------------------|-----------------|--------|
|----------|------------------|-----------------|--------|
|
| W          +W                 Q  +E  H    +E    +W
|----------|------------------|-----------------|--------|
|----------|------------------|-----------------|--------|
|----------|------------------|-----------------|--------|
|----------|------------------|--------5----(5)-|-(5)----|
|-7--------|-(7)--------------|-6--(6)----------|--------|
|----------|------------------|-----------------|--------|


   W           +H     +E  E  E E   H        H         +H     Q   Q
|-----------|--------------------|------------------|---------------|
|-----------|--------------------|------------------|---------------|
|-----------|--------------------|------------------|---------------|
|--8--------|--(8)----(8)-8-10-8-|-7----------------|---------------|
|-----------|--------------------|----------8-------|-(8)----8--10--|
|-----------|--------------------|------------------|---------------|
|
|  W           +W                  Q  +E  H     +E    +H     Q   Q
|-----------|--------------------|------------------|---------------|
|-----------|--------------------|------------------|---------------|
|-----------|--------------------|------------------|---------------|
|-----------|--------------------|------------------|---------------|
|-10--------|-(10)---------------|-8--(8)-----------|---------------|
|-----------|--------------------|--------5-----(5)-|-(5)----5---8--|


  W          H    +E  E E E   W          +W
|----------|----------------|----------|------|
|----------|----------------|----------|------|
|----------|----------------|----------|------|
|-6--------|-6----(6)-6-5---|----------|------|
|----------|--------------8-|-6--------|-(6)--|
|----------|----------------|----------|------|
|
| W          H    +E  E E E   W          +W
|----------|----------------|----------|------|
|----------|----------------|----------|------|
|----------|----------------|----------|------|
|----------|----------------|----------|------|
|-7--------|-7----(7)-------|----------|------|
|----------|----------8-6-4-|-3--------|-(3)--|


  W              Q   Q   Q  Q    H    H       Q   +E  H    +E
|-------------|----------------|-----------|-------------------|
|-------------|----------------|-----------|-------------------|
|-------------|----------------|-----------|-------------------|
|-------------|----------------|-----------|----------8----(8)-|
|-8-----------|-10--11--10--8--|-6----8----|-10--(10)----------|
|-------------|----------------|-----------|-------------------|
|
| Q  Q  Q  Q     Q   Q   Q  Q    H    H       Q   +E  H    +E
|-------------|----------------|-----------|-------------------|
|-------------|----------------|-----------|-------------------|
|-------------|----------------|-----------|-------------------|
|-------------|----------------|-----------|----------5----(5)-|
|-8--6--5-----|-------------5--|-6----6----|--6---(6)----------|
|----------8--|--7---7---8-----|-----------|-------------------|


  Q  Q  Q  Q    Q   Q  Q   Q    H    H       H     +E  Q  +E
|-------------|---------------|-----------|-------------------|
|-------------|---------------|-----------|-------------------|
|----8--8--8--|-7-------------|-7----8----|-10----(10)--------|
|-------------|----10--9--10--|-----------|------------8--(8)-|
|-------------|---------------|-----------|-------------------|
|-------------|---------------|-----------|-------------------|
|
| Q  Q  Q  Q    Q   Q  Q   Q    H    H       H     +E  Q
|-------------|---------------|-----------|-------------------|
|-------------|---------------|-----------|--3-----(3)--------|
|-5--3--2-----|------------2--|-4----5----|-------------------|
|----------5--|-4---4--5------|-----------|------------6------|
|-------------|---------------|-----------|-------------------|
|-------------|---------------|-----------|-------------------|


  Q   Q   +E  Q  +E    Q  +E   H     +E    Q  Q  Q  E  E    +W
|--------------------|-------------------|---------------|---------|
|-----9---(9)-8--(8)-|-------------------|---------------|---------|
|--------------------|-8--(8)------------|------------10-|-(10)----|
|--------------------|---------8-----(8)-|-7--7--7--7----|---------|
|--------------------|-------------------|---------------|---------|
|--------------------|-------------------|---------------|---------|
|
| Q   Q   +E  Q  +E    Q  +E   H     +E    Q  Q  Q  E  E    +W
|--------------------|-------------------|---------------|---------|
|--------------------|-------------------|---------------|---------|
|----10--(10)-8--(8)-|-------------------|---------------|---------|
|--------------------|-8--(8)------------|-------------7-|--(7)----|
|--------------------|--------10----(10)-|-8--8--8--8----|---------|
|--------------------|-------------------|---------------|---------|


  Q  Q  +E  Q  +E    Q  +E  Q  +E  Q     W           +W
|------------------|------------------|-----------|---------|
|------------------|------------------|-----------|---------|
|----8--(8)--------|------------------|-----------|---------|
|-----------9--(9)-|-6--(6)-----------|-----------|---------|
|------------------|--------6--(6)-8--|-10--------|-(10)----|
|------------------|------------------|-----------|---------|
|
| Q  Q  +E  Q  +E    Q  +E  Q  +E  Q     W           +W
|------------------|------------------|-----------|---------|
|------------------|------------------|-----------|---------|
|------------------|------------------|-----------|---------|
|----6--(6)--------|------------------|-----------|---------|
|-----------6--(6)-|------------------|-----------|---------|
|------------------|-7--(7)-4--(4)-7--|--6--------|--(6)----|


  Q   Q   +E  Q  +E    Q  +E   H     +E    Q  Q  Q  E  E    +W
|--------------------|-------------------|---------------|---------|
|-----9---(9)-8--(8)-|-------------------|---------------|---------|
|--------------------|-8--(8)------------|------------10-|-(10)----|
|--------------------|---------8-----(8)-|-7--7--7--7----|---------|
|--------------------|-------------------|---------------|---------|
|--------------------|-------------------|---------------|---------|
|
| Q   Q   +E  Q  +E    Q  +E   H     +E    Q  Q  Q  E  E    +W
|--------------------|-------------------|---------------|---------|
|--------------------|-------------------|---------------|---------|
|----10--(10)-8--(8)-|-------------------|---------------|---------|
|--------------------|-8--(8)------------|-------------7-|--(7)----|
|--------------------|--------10----(10)-|-8--8--8--8----|---------|
|--------------------|-------------------|---------------|---------|


  Q  Q  +E  Q  +E    Q  +E   Q   +E  Q     E E H    +Q     +W
|------------------|--------------------|----------------|--------|
|------------------|--------------------|----------------|--------|
|----8--(8)--------|--------------------|----------------|--------|
|-----------9--(9)-|-6--(6)-------------|----------------|--------|
|------------------|--------10--(10)-8--|-10-8-6----(6)--|-(6)----|
|------------------|--------------------|----------------|--------|
|
| Q  Q  +E  Q  +E    Q  +E   Q   +E  Q     E E H    +Q     +W
|------------------|--------------------|----------------|--------|
|------------------|--------------------|----------------|--------|
|------------------|--------------------|----------------|--------|
|----6--(6)--------|--------------------|----------------|--------|
|-----------6--(6)-|--------------------|----------------|--------|
|------------------|-7--(7)--4---(4)-7--|--6-4-3----(3)--|-(3)----|
Добавлено: 20.05.2015
Другие материалы по этой песне:

Страница создана 22.07.2012
http://primanota.ru/misc-computer-games/little-nemo-the-dream-master-level-1-mushroom-forest-chords.htm
Привет, Гость.
Предлагаем пройти революционный курс по гитаре.
Подарок от PrimaNota.Ru, забирай!