PrimaNota.ru - самый крупный в мире бесплатный архив песенных текстов, аккордов, табулатур и нот


Misc Computer Games - Legend Of Zelda - Eponas Song - таба, бас-таба, видео

Регистрация Запомнить меня
Войти через:  Facebook Google Twitter Vk Yandex Mail.ru

Misc Computer Games - Legend Of Zelda - Eponas Song - таба, бас-таба, видео

Печатать
Просмотров: 161
Tabbed and submitted by: epilare
E-Mail: epilare@hotmail.com

Tuning: EADGBe

This is "Epona's song" from the popular Nintendogame, The Legend of Zelda -Ocarina of 
Please rate and comment.


s=slide

e|-10-7-----10-7-----10-7----7----|
B|------10-------10-------10---10-|
G|--------------------------------|
D|--------------------------------|
A|--------------------------------|
E|--------------------------------|

e|---------9s10-7--10--10-9-6-3---|
B|-7------------------------------|
G|---10-11------------------------|
D|--------------------------------|
A|--------------------------------|
E|--------------------------------|
Добавлено: 31.07.2012
Другие материалы по этой песне:
  • Аккорды и текст

Страница создана 04.03.2012
http://primanota.ru/misc-computer-games/legend-of-zelda-eponas-song-chords.htm
Привет, Гость.
Предлагаем пройти революционный курс по гитаре.
Подарок от PrimaNota.Ru, забирай!