PrimaNota.ru - самый крупный в мире бесплатный архив песенных текстов, аккордов, табулатур и нот


Misc Computer Games - Legend Of Zelda - Ballad Of The Goddess - таба, видео

Регистрация Запомнить меня
Войти через:  Facebook Google Twitter Vk Yandex Mail.ru

Misc Computer Games - Legend Of Zelda - Ballad Of The Goddess - таба, видео

Печатать
Просмотров: 125
Уроки эстрадного вокала в Санкт-Петербурге
Author/Artist: Nintendo/Koji Kondo
Title: Skyward Sword Main Theme/Ballad of the Goddess
m mute
A arpeggio

Arranged for Guitar
Standard Tuning

---|------------------20--22---------------------------------------------|----|
---|-15------18--20---18-------20--17---15---20---17--15--13--15--20--17-|----|
---|-14--14-----------17-------17-------12---17-------12----------17-----|----|
---|-12--12-----------17-------17-------12---17-------12----------17-----|----|
---|-12--12--------------------17-------12---17-------12----------17-----|----|
---|---------------------------------------------------------------------|----|
     A   A  Intro     A        A        A    A        A           A

--|---------------------|---------------------|--|---------------|------------|
--|---------------------|---------------------|--|---------------|------------|
--|---------------------|---------------------|--|---------------|------------|
--|---------------------|---------------------|--|---------------|------------|
--|--5---0-5-0-5-0-5-0--|-0-5---0-5-0-5-0-5-0-|--|-0-5--0-5-0-5--|------------|
--|---------------------|---------------------|--|---------------|------------|
   PreMain                                                     m

----|--------------------------------------------------------|--|-------------|
----|--------------------------------------------------------|--|-------------|
----|--------------------------------------------------------|--|-------------|
----|--------------------------------------------------------|--|-------------|
----|-5---7-8-10---15--17--10--7--5---10--7--5-3-5--10---7---|--|-------------|
----|--------------------------------------------------------|--|-------------|
    Main (Play it backwards for zelda's lullaby)

----|---------------------------------------------|----17---|-----------------|
----|---------------------------------------------|---------|-----------------|
----|-14--12p10--10-9--10h12--7--5--7-7--9--------|---------|-----------------|
----|---------------------------------------5--7--|---------|-----------------|
----|---------------------------------------------|---------|-----------------|
----|---------------------------------------------|---------|-----------------|
    Interlude

----|-------------------------------------------------|-----------------------|
----|-------------------------------------------------|-----------------------|
----|-7-----------------------------------------------|-----------------------|
----|-7-----------------------------------------------|-----------------------|
----|-5-----------------------7-8-10---15--17---17----|-----------------------|
----|-------------------------------------------------|-----------------------|
  End Pick...................
Добавлено: 19.05.2012
Другие материалы по этой песне:
  • Аккорды и текст

Страница создана 19.05.2012
http://primanota.ru/misc-computer-games/legend-of-zelda-ballad-of-the-goddess-chords.htm
Привет, Гость.
Предлагаем пройти революционный курс по гитаре.
Подарок от PrimaNota.Ru, забирай!