PrimaNota.ru - самый крупный в мире бесплатный архив песенных текстов, аккордов, табулатур и нот


Misc Computer Games - League Of Legends - Tahm Kench Theme - таба, видео

Регистрация Запомнить меня
Войти через:  Facebook Google Twitter Vk Yandex Mail.ru

Misc Computer Games - League Of Legends - Tahm Kench Theme - таба, видео

Печатать
Просмотров: 111
                 Tahm Kench Log-in Music - League of Legends                              


                                                  Riot Games League of Legends
ProtoShredanoid - Guitar
       D                                                                      
       H        Q        H         Q       E   E  H           Q    Q    Q     
E||------------------|------------------|------------------|-----------------|
B||------------------|------------------|------------------|-----------------|
G||*-----------------|------------------|------------------|-----------------|
D||*--12--------7----|--10--------12----|--5p--3--0--------|-------0---------|
A||------------------|------------------|------------------|-----------------|
D||----0-------------|---0--------------|--0---------------|--0---------0----|
 
 
  F                G                 D                                 
  H        Q       H         Q       Q    Q    Q       Q    Q    Q     
----------------|-----------------|-----------------|-----------------|
----------------|-----------------|-------3----3----|-------3----3----|
----------------|-----------------|-------2----2----|-------2----2----|
--3--------3----|--5b--------3----|-------0----0----|-----------------|
--3--------3----|--5---------3----|-----------------|--0--------------|
--3--------3----|--5---------3----|--0--------------|-----------------|
 
 
                                        D                                 
  Q.     E  E  E     Q    Q    Q        H        Q        H         Q     
------------------|-----------------|-----------------|------------------|
---------3--3--3--|-------3----3----|-----------------|------------------|
---------2--2--2--|-------2----2----|-----------------|------------------|
---------0--0--0--|-----------------|--12--------7----|--10--------12----|
------------------|--0--------------|-----------------|------------------|
--0---------------|-----------------|---0-------------|---0--------------|
 
 
                                        F                G               
   Q     H            Q    Q    Q       H        Q       Q    Q    Q     
------------------|------------------|----------------|-----------------|
------------------|------------------|----------------|-----------------|
--10--------------|------------------|----------------|-----------------|
--------12--------|---L----0---------|--3--------3----|--5----3----5----|
------------------|------------------|--3--------3----|--5----3----5----|
---0--------------|---0---------0----|--3--------3----|--5----3----5----|
 
 
  A                                   D                              
  H        Q       Q    Q    Q        H.               H.            
----------------|-----------------|----------------|----------------|
----------------|-----------------|----------------|----------------|
----------------|-----------------|----------------|----------------|
--7--------7----|--7----7----7----|--12------------|--10------------|
--7--------7----|--7----7----7----|----------------|----------------|
--7--------7----|--7----7----7----|---0------------|---0------------|
 
 
                                       G                               
  E   E  H           Q    Q    Q       H        Q       H        Q     
------------------|-----------------|----------------|----------------|
------------------|-----------------|----------------|----------------|
------------------|-----------------|--4--------4----|--4--------5----|
--5p--3--0--------|-------0---------|--5--------5----|--5--------5----|
------------------|-----------------|--5--------5----|--5--------5----|
--0---------------|--0---------0----|--5--------5----|--5--------5----|
 
 
  F                                     D                              
  H        Q       Q    E  E  E  E      H.               H.            
----------------|-------------------|----------------|----------------|
----------------|-------------------|----------------|----------------|
--2--------2----|--2----2--2--2--2--|----------------|----------------|
--3--------3----|--3----3--3--3--3--|--12------------|--10------------|
--3--------3----|--3----3--3--3--3--|----------------|----------------|
--3--------3----|--3----3--3--3--3--|---0------------|---0------------|
 
 
                  A                D                                 
  H.              H        Q       Q    Q    Q       Q    Q    Q     
---------------|----------------|-----------------|-----------------|
---------------|----------------|-------3----3----|-------3----3----|
---------------|----------------|-------2----2----|-------2----2----|
--7------------|--L--------3----|-------0----0----|-----------------|
--7------------|--L--------3----|-----------------|--0--------------|
--7------------|--L--------3----|--0--------------|-----------------|
 
 
                                       D                                 
  Q.     E  E  E     Q    Q    Q       Q    Q    Q       Q    Q    Q     
------------------|-----------------|-----------------|-----------------|
---------3--3--3--|-------3----3----|-------3----3----|-------3----3----|
---------2--2--2--|-------2----2----|-------2----2----|-------2----2----|
---------0--0--0--|-----------------|-------0----0----|-----------------|
------------------|--0--------------|-----------------|--0--------------|
--0---------------|-----------------|--0--------------|-----------------|
 
 
  Q.     E  E  E     Q    Q    Q        
------------------|-------------------||
---------3--3--3--|-------3----3------||
---------2--2--2--|-------2----2----*-||
---------0--0--0--|-----------------*-||
------------------|--0----------------||
--0---------------|-------------------||
 
 
 
 
Duration Legend
---------------
W - whole
H - half
Q - quarter
E - 8th
S - 16th
T - 32nd
X - 64th
. - note dotted
|-n-|  - n-tuplets
 
 
Tablature Legend
----------------
L - tied note
x - dead note
g - grace note
(n) - ghost note
> - accentuded note
NH - natural harmonic
AH - artificial harmonic
TH - tapped harmonic
SH - semi harmonic
PH - pitch harmonic
h - hammer on
p - pull off
b - bend
br - bendRelease
pb - preBend
pbr - preBendRelease
brb - bendReleaseBend
\n/ - tremolo bar dip
\n - tremolo bar dive
-/n - tremolo bar Release up
/n\ - tremolo bar inverted dip
/n - tremolo bar return
-\n - tremolo bar Release down
S - shift slide
s - legato slide
/ -  slide into from below or out of upwards
\ -  slide into from above or out of downwards
~ - vibrato
W - wide vibrato
tr - tril'
TP - tremolo picking
T - tapping
S - slap
P - pop
< - fade in
^ - brush up
v - brush down
Добавлено: 14.09.2015
Другие материалы по этой песне:
  • Аккорды и текст

Страница создана 14.09.2015
http://primanota.ru/misc-computer-games/league-of-legends-tahm-kench-theme-chords.htm
Привет, Гость.
Предлагаем пройти революционный курс по гитаре.
Подарок от PrimaNota.Ru, забирай!