PrimaNota.ru - самый крупный в мире бесплатный архив песенных текстов, аккордов, табулатур и нот


Misc Computer Games - Kirby - Green Greens - таба, видео

Регистрация Запомнить меня
Войти через:  Facebook Google Twitter Vk Yandex Mail.ru

Misc Computer Games - Kirby - Green Greens - таба, видео

Печатать
Просмотров: 99
e---------------0-3-8-7-5-3----0--3-1--------0-----
B-------1-----1------------------------3-3-3----3-1
G--0--0--------------------------------------------
D--------------------------------------------------
A--------------------------------------------------
E--------------------------------------------------


e-----------------0-1-8-5-3-1---------0-------------0------
B-------1-----1-3--------------3-3-3----3-1-----1-3---1-3-1
G--0--0----------------------------------------------------
D----------------------------------------------------------
A----------------------------------------------------------
E----------------------------------------------------------

e-----------------------------------------
B--4-3-4-6-4-6-8-6-8-1---1-3-4-3-4-6-4-6-8
G-----------------------------------------
D-----------------------------------------
A-----------------------------------------
E-----------------------------------------

e--11-10-11-13-11-13-15-13-15-8---8-10-11-10-11-13-11-13-10
B----------------------------------------------------------
G----------------------------------------------------------
D----------------------------------------------------------
A----------------------------------------------------------
E----------------------------------------------------------
Добавлено: 10.05.2015
Другие материалы по этой песне:

Страница создана 17.04.2012
http://primanota.ru/misc-computer-games/kirby-green-greens-chords.htm
Привет, Гость.
Предлагаем пройти революционный курс по гитаре.
Подарок от PrimaNota.Ru, забирай!