PrimaNota.ru - самый крупный в мире бесплатный архив песенных текстов, аккордов, табулатур и нот


Misc Computer Games - Kingdom Hearts - Rowdy Rumble - таба, видео

Регистрация Запомнить меня
Войти через:  Facebook Google Twitter Vk Yandex Mail.ru

Misc Computer Games - Kingdom Hearts - Rowdy Rumble - таба, видео

Печатать
Просмотров: 57
-------------------------------------------------------------------------------
                             Rowdy Rumble - Kingdom Hearts
-------------------------------------------------------------------------------
Tabbed by: Monkeywidakni[fe] 
E-mail: monkeywidaknife@gmail.com

So, I was doing this by ear, and it's probably not 100% accurate, but it sounds nice to me.
I think I may have lost a part or two during the whole orchestra bit,
so if someone could help with that, it'd be nice :3
You'll need a partner for this song, unless you don't care about the background beat.


Tuning: Standard

Guitar 1: Play this for the duration of the song. (Sorry, but you have the boring part!)
e|---------------------------------------------------------------------------|
B|---------------------------------------------------------------------------|
G|---------------------------------------------------------------------------|
D|-12-14-15---12-14-15---12-14-15---17-15-14---------------------------------|
A|---------------------------------------------------------------------------|
E|---------------------------------------------------------------------------|

Guitar 2: Just cycle through these for the song
e|---------------------------------------------------------------------------|
B|-10---------8-6---------8-11-10--------------------------------------------|
G|----7---6-9-----7---6-9------------6-9-6-7---------------------------------|
D|---------------------------------------------------------------------------|
A|---------------------------------------------------------------------------|
E|---------------------------------------------------------------------------|

e|---------------------------------------------------------------------------|
B|-10---------8-6---------8-11-10---10-14-17-15------------------------------|
G|----7---6-9-----7---6-9----------------------------------------------------|
D|---------------------------------------------------------------------------|
A|---------------------------------------------------------------------------|
E|---------------------------------------------------------------------------|





************************************

| /   slide up
| \   slide down
| h   hammer-on
| p   pull-off
| ~   vibrato
| +   harmonic
| x   Mute note
| b   Bend
| pb  Pre-bend
| br  Bend release
| pbr Pre-bend release
| brb Bend release bend

************************************
Добавлено: 14.09.2015
Другие материалы по этой песне:
  • Аккорды и текст

Страница создана 14.09.2015
http://primanota.ru/misc-computer-games/kingdom-hearts-rowdy-rumble-chords.htm
Привет, Гость.
Предлагаем пройти революционный курс по гитаре.
Подарок от PrimaNota.Ru, забирай!