PrimaNota.ru - самый крупный в мире бесплатный архив песенных текстов, аккордов, табулатур и нот


Misc Computer Games - Karnov - Stage 1 - таба, бас-таба, видео

Регистрация Запомнить меня
Войти через:  Facebook Google Twitter Vk Yandex Mail.ru

Misc Computer Games - Karnov - Stage 1 - таба, бас-таба, видео

Печатать
Просмотров: 50
Gtr I (E A D G B E) - Sawtooth
Gtr II (E A D G B E) - Synth Brass

  Q=140
  Gtr I
   H     H       Q   Q   H
|-------------|--------------|
|-------------|--------------|
|-13----13----|-13--13--13---|
|-------------|--------------|
|-------------|--------------|
|-------------|--------------|
|
| Gtr II
|  H     H       H       H
|-------------|--------------|
|-------------|--------------|
|-------------|--------------|
|-11----11----|-11------11---|
|-------------|--------------|
|-------------|--------------|


     E  E  E  E  E  E  E  E    E  T  T  S  E  E  E  E  E  E
||--------------------------|-11-10-11-10----10-------------|
||o-13----------11-13-14-11-|-------------13----11-------11-|
||-----13-12-13-------------|----------------------13-12----|
||--------------------------|-------------------------------|
||o-------------------------|-------------------------------|
||--------------------------|-------------------------------|
|
|    E  E  E  E  E  E  E  E    E  T  T  S  E  E  E  E  E  E
||--------------------------|-------------------------------|
||o-------------------------|-------------------------------|
||--------------------------|--8--7--8--7-----7-------------|
||--11-----------8-10-11--8-|-------------10-----8--------8-|
||o----11-10-11-------------|----------------------11-10----|
||--------------------------|-------------------------------|


   E  E  E  E  E  S  S  E  E    H    H
|----------------------------|------------|
|----------------------------|------------|
|-10-12-13-10-12-13-12----12-|-10---------|
|----------------------13----|------------|
|----------------------------|------------|
|----------------------------|------------|
|
|  E  E  E  E  E  S  S  E  E    H    H
|----------------------------|------------|
|----------------------------|------------|
|----------------------------|------------|
|----------------------------|------------|
|--8-10-11--8-10-11-10----10-|--8---------|
|----------------------11----|------------|


   E  E  S  S  S  S  E  E  E  E    E  T  T  S  E  E  E  E  E  E
|-11-------------------11-12----|-14-13-14-13-11-13-------------|
|----12-11-12-11-12-14-------14-|-------------------12-14-11----|
|-------------------------------|----------------------------11-|
|-------------------------------|-------------------------------|
|-------------------------------|-------------------------------|
|-------------------------------|-------------------------------|
|
|  E  E  S  S  S  S  E  E  E  E    E  T  T  S  E  E  E  E  E  E
|-------------------------------|-------------------------------|
|-------------------------------|-------------------------------|
|--8--------------------8--9----|-11-10-11-10--8-10-------------|
|-----9--8--9--8--9-11-------11-|--------------------9-11--8----|
|-------------------------------|-----------------------------9-|
|-------------------------------|-------------------------------|


   E  E  E  E  E  S  S  E  E    H    H
|----------------------------|------------|
|----11-12----11-12-11----11-|------------|
|-13-------13----------11----|-13---------|
|----------------------------|------------|
|----------------------------|------------|
|----------------------------|------------|
|
|  E  E  E  E  E  S  S  E  E    H    H
|----------------------------|------------|
|----------------------------|------------|
|----------------------------|------------|
|-----8--9-----8--9--8-----8-|------------|
|-11-------11-----------9----|-11---------|
|----------------------------|------------|


   E E  E E  E E  E E    E E  E E H
|-14---14---14---14---|-14---14-----------|
|---------------------|-------------------|
|---------------------|-------------------|
|---------------------|-------------------|
|---------------------|-------------------|
|---------------------|-------------------|
|
|  E E  E E  E E  E E    E E  E E E E E E
|-11---11---10---10---|-11---11-----------|
|---------------------|-------------------|
|----8----8----7----7-|----8----7---7---7-|
|---------------------|-------------------|
|---------------------|-------------------|
|---------------------|-------------------|


   E E  E E  E E  E E    E E  E E H
|-14---14---14---14---|-14---14-----------|
|---------------------|-------------------|
|---------------------|-------------------|
|---------------------|-------------------|
|---------------------|-------------------|
|---------------------|-------------------|
|
|  E E  E E  E E  E E    E E  E E E E E E
|-11---11---10---10---|-11---11-----------|
|---------------------|-------------------|
|----8----8----7----7-|----8----7---7---7-|
|---------------------|-------------------|
|---------------------|-------------------|
|---------------------|-------------------|


   E  E  E  E  E  E  E  E    E  E  E  E H
|-17----17----17----17----|-17----17--------------|
|-------------------------|-----------------------|
|-------------------------|-----------------------|
|-------------------------|-----------------------|
|-------------------------|-----------------------|
|-------------------------|-----------------------|
|
|  E  E  E  E  E  E  E  E    E  E  E  E E  E E  E
|-14----14----13----13----|-14----14--------------|
|-------------------------|-----------------------|
|----11----11----10----10-|----11----10---10---10-|
|-------------------------|-----------------------|
|-------------------------|-----------------------|
|-------------------------|-----------------------|


   E  E  E  E  E  E  E  E    E  E  E  E H
|-17----17----17----17----|-17----17---------------||
|-------------------------|-----------------------o||
|-------------------------|------------------------||
|-------------------------|------------------------||
|-------------------------|-----------------------o||
|-------------------------|------------------------||
|
|  E  E  E  E  E  E  E  E    E  E  E  E E  E E  E
|-14----14----13----13----|-14----14---------------||
|-------------------------|-----------------------o||
|----11----11----10----10-|----11----10---10---10--||
|-------------------------|------------------------||
|-------------------------|-----------------------o||
|-------------------------|------------------------||
Добавлено: 18.02.2016
Другие материалы по этой песне:

Страница создана 15.02.2016
http://primanota.ru/misc-computer-games/karnov-stage-1-chords.htm
Привет, Гость.
Предлагаем пройти революционный курс по гитаре.
Подарок от PrimaNota.Ru, забирай!