PrimaNota.ru - самый крупный в мире бесплатный архив песенных текстов, аккордов, табулатур и нот


Misc Computer Games - I Wanna Be The Guy Theme - таба, видео

Регистрация Запомнить меня
Войти через:  Facebook Google Twitter Vk Yandex Mail.ru

Misc Computer Games - I Wanna Be The Guy Theme - таба, видео

Печатать
Просмотров: 115
Tabbed by: Micah
This is just what I could figure out. You can play along with
the song though.
Eventually I'll figure out the rest.

Part 1
e|------------------------------------------------|
b|--11--------------11----12--------------12--14--|
g|----------11--13----------------11--13----------|
d|------11--------------------11------------------|
a|------------------------------------------------|
E|------------------------------------------------|
  |:Repeat:|

Part 2
|-------------------------------------------------|
|--11~~~~~~~~~~~~~~~~~~~~12~~~~~~~~~~~14~~~~~~~~~-|
|-------------------------------------------------|
|-------------------------------------------------|
|-------------------------------------------------|
|-------------------------------------------------|
  |:Repeat:|

Part 1
|------------------------------------------------------------|
|--------------11--9-----------------------------------------|
|--11------11---------10------10--8-----8--11--10--8---------|
|------11-----------------11---------8----------------11--10-|
|------------------------------------------------------------|
|------------------------------------------------------------|

|------------------------------------------|
|------------------------------------------|
|-------------8-------------8--------------|
|--10--6--10-----10--6--10-----10/11~~~~~--|
|------------------------------------------|
|------------------------------------------|

|-------------------------------------------------------|
|-------------------------------------------------------|
|---------------6/10--8--6--6/10--8--6--6/11--10--8--11-|
|--9/13--11--9------------------------------------------|
|-------------------------------------------------------|
|-------------------------------------------------------|

Part 2
I'm working on it. =)


>KEYCHANGE<

Part 1
g|-----------------------------------------------------------------|
d|--7--9--11--12----12--11--11/12/9----7--9--11--12--14--12--11-9--|
a|-----------------------------------------------------------------|
E|-----------------------------------------------------------------|

|----------------------------------------------------|
|--10--101010--9--10--7---7---7-----9-----10-----12--|
|----------------------------------------------------|
|----------------------------------------------------|

|-------------------------------|
|-------------------------------|
|-------------------------------|
|-------------------------------|
|-------------------------------|
|////////PICKSLIDE/////////////-

|----------------------------------------------------------------|
|----------------------------------------------------------------|
|----------------------------------1st time---------2nd time-----|
|--10--101010--101010h12--8--6--6-|-3--3--5--5-5/6-|--8--8--10--|
|----------------------------------------------------------------|
|----------------------------------------------------------------|
   |:Repeat:|

That's it. Like i said, evetually i'll do the other parts but this
 is what i got for now.
 Enjoy!
     _______            __         __            __   _____________
   _| ____  |_         |  |       |  |          |  | |   __________|
 _| _|    |_  |       _|  |_      |  |_        _|  | |  |
|  |         |_|     |  __  |     |    |      |    | |  |
|  |                _| |  | |_    |    |_    _|    | |  |__________
|  |    _______    |   |  |   |   |   _  |__|  _   | |   __________|
|  |   |____   |   |   |__|   |   |  | |      | |  | |  |
|_ |_       |  |  _| ________ |_  |  | |_    _| |  | |  |
  |_ |______|_ | |  |        |  | |  |   |  |   |  | |  |__________
    |_______| || |__|        |__| |__|   |__|   |__| |_____________|
     _______      __          __   ______________   ___________
   _|  ___  |_   |  |        |  | |   ___________| |   _______ |_
 _|  _|   |_  |_ |_ |_      _| _| |  |             |  |       |  |
|   |       |   |  |  |    |  |   |  |             |  |       |  |
|   |       |   |  |  |    |  |   |  |___________  |  |       | _|
|   |       |   |  |_ |    | _|   |   ___________| |  |_______||_
|   |       |   |    ||____||     |  |             |   _______   |
|_  |_     _|  _|    |_    _|     |  |             |  |       |  |
  |_  |___|  _|        |  |       |  |___________  |  |       |_ |_
    |_______|          |__|       |______________| |__|         |__|
[][][][][][][][][][][][][][][][][][]][][][][][][][][[][][][]][][][][][]
                       PRESS 'R' TO TRY AGAIN
Добавлено: 07.04.2012
Другие материалы по этой песне:
  • Аккорды и текст

Страница создана 07.04.2012
http://primanota.ru/misc-computer-games/i-wanna-be-the-guy-theme-chords.htm
Привет, Гость.
Предлагаем пройти революционный курс по гитаре.
Подарок от PrimaNota.Ru, забирай!