PrimaNota.ru - самый крупный в мире бесплатный архив песенных текстов, аккордов, табулатур и нот


Misc Computer Games - Guitar Hero 3 - Guitar Battle Vs Slash - таба, бас-таба, видео

Регистрация Запомнить меня
Войти через:  Facebook Google Twitter Vk Yandex Mail.ru

Misc Computer Games - Guitar Hero 3 - Guitar Battle Vs Slash - таба, бас-таба, видео

Печатать
Просмотров: 308
This is the guitar battle against slash on Guitar Hero 3: Legends of Rock. In my opinion 
is the best guitar battle on the game. This is just the intro but i will try and do the 
some time. Enjoy!


Slash
e[------------------------------------------------]
B[------5p3h5~-----4p3----------------------------]
G[---2b----------------5p4p3-5b-------5b----------]
D[------------------------------5p4p3----5p4p3p2~~]
A[------------------------------------------------]
E[------------------------------------------------]

You (After that)
e[--10h11h12-12~h15p12~-12p11p10----------------------------12~~]
B[-------------------------------12p11p10----------12p11p10-----]
G[----------------------------------------14p13p12--------------]
D[--------------------------------------------------------------]
A[--------------------------------------------------------------]
E[--------------------------------------------------------------]

Then Slash Again
e[------5------7-----8------10-------8-----7-----5-----3b~]
B[--3/5----5/7---7/8---8/10-----10\8---8\7---7\5---5\3----]
G[--------------------------------------------------------]
D[--------------------------------------------------------]
A[--------------------------------------------------------]
E[--------------------------------------------------------]

Back to you
e[--17b-15-15p12----------15b--------------------------------------------]
B[---------------15p14p12-----15p14p12--------------------------------12~]
G[-------------------------------------14p12-15p12-14p12-15p12-14p12-----]
D[-----------------------------------------------------------------------]
A[-----------------------------------------------------------------------]
E[-----------------------------------------------------------------------]

Slash again
e[--2b~-2h3p2b~]
B[--2b~--------]
G[-------------]
D[-------------]
A[-------------]
E[-------------]

You for the last time
e[--12p11-------------------------------]
B[--------12p11p10----------------------]
G[-----------------12p11p10-11b-10h11p9-]
D[--------------------------------------]
A[--------------------------------------]
E[--------------------------------------]

And then the drum comes in. Hope u like it.
Добавлено: 20.07.2012
Другие материалы по этой песне:

Страница создана 11.03.2012
http://primanota.ru/misc-computer-games/guitar-hero-3-guitar-battle-vs-slash-chords.htm
Привет, Гость.
Предлагаем пройти революционный курс по гитаре.
Подарок от PrimaNota.Ru, забирай!