PrimaNota.ru - самый крупный в мире бесплатный архив песенных текстов, аккордов, табулатур и нот


Misc Computer Games - Gauntlet - Song D - таба, бас-таба, видео

Регистрация Запомнить меня
Войти через:  Facebook Google Twitter Vk Yandex Mail.ru

Misc Computer Games - Gauntlet - Song D - таба, бас-таба, видео

Печатать
Просмотров: 60
Gtr I (E A D G B E) - 'Harpsichord'
Gtr II (E A D G B E) - 'Acoustic Guitar'

  Q=140
  Gtr I
                    |--3--|      |3-|  |--3--|   |-3-|  |--3--|
  E S S S E. E.  S  E  E  E      Q  E  Q     E   Q   E  E  E  E
|---------------------------||----------------------------------|
|---------------------------||o---------------------------------|
|---------------------------||--12----10------------------------|
|---9-9-9-9--------10-12-13-||-----10-------10--13-----10-12-13-|
|---------------10----------||o---------------------10----------|
|---------------------------||----------------------------------|
|
| Gtr II
|                                      |--3--|
| E S S S E. H                   Q     E  E  E  +Q      Q
|---------------------------||----------------------------------|
|---------------------------||o---------------------------------|
|---------------------------||----------------------------------|
|---------------------------||--------12-13---------------------|
|---7-7-7-7-----------------||o-------------13-(13)-------------|
|---------------------------||----------------------------------|


   |3-|  |--3--|   |-3-|  |--3--|    |3-|  |--3--|  |--3--|  |--3--|
   Q  E  Q     E   Q   E  E  E  E    Q  E  Q     E  Q     E  E  E  E
|---------------------------------|----------------------------------|
|---------------------------------|----------------------------------|
|-12----10------------------------|-12----10----------------------10-|
|----10-------10--13-----10-12-13-|----10-------10-13----10-12-13----|
|---------------------10----------|----------------------------------|
|---------------------------------|----------------------------------|
|
|        |--3--|                           |--3--|  |3-|
|  Q     E  E  E  +Q      Q          Q     E  E  E  E  Q     Q
|---------------------------------|----------------------------------|
|---------------------------------|----------------------------------|
|---------------------------------|-------------------12-------------|
|-------12-13---------------------|-------12-13-10-13----------------|
|-------------13-(13)-------------|----------------------------------|
|---------------------------------|----------------------------------|


                                  |--3--|                        |---3---|
   Q        Q        E.        S  E  E  E    E E  Q.          E  E  E    E
|-----------------------------------------|--------------------------------|
|--------------------------------------11-|-13-----------------------------|
|-12--------------------------12-12-13----|------10-------------10-12---13-|
|-----------------------------------------|--------------------------------|
|-----------------------------------------|--------------------------------|
|-----------------------------------------|--------------------------------|
|
|  |--3--|  |--3--|  |--3---|     |3-|            |--3---|
|  E  E  E  E  E  E  E   E  E     E  Q       Q    E   E  E  Q    E    E
|-----------------------------------------|--------------------------------|
|-----------------------------------------|--------------------------------|
|-12-10-12----10--------------------------|-------------10-----------------|
|----------13----12-13--10-12-------10----|----------10----12--------------|
|--------------------------------13-------|------11-------------13---------|
|-----------------------------------------|--------------------------------|


                      |---3---|         |--3---|  |--3--|   |--3---|
   E E  Q.         E  E  E    E    Q   +E   E  E  Q     E  +E   E  E
|-------------------------------|-------------------------------------|
|-11----------------------------|-------------------------------------|
|-----------------------10---12-|-13--(13)-12-10------------------10--|
|------13-----------------------|----------------13----12-(12)-13-----|
|-------------------------------|-------------------------------------|
|-------------------------------|-------------------------------------|
|
|       |--3--|                         |--3---|  |--3--|   |--3---|
|  Q    E  E  E  Q    E    E       Q    E   E  E  E  E  E   E   E  E
|-------------------------------|-------------------------------------|
|-------------------------------|---------------------------------10--|
|-------------------------------|----------------------10------10-----|
|----------8-11-10--------------|-----------7-10--7-10-----10---------|
|-------9------------11---------|-------8-----------------------------|
|-------------------------------|-------------------------------------|


                             |--3---|                       |--3--|
   Q       Q   E.        S   E   E  E    E E  Q.         E  E  E  E
|-------------------------------------|-----------------------------|
|----------------------------------11-|-12--------------------------|
|-12--------------------12--12--13----|--------------------10-11-13-|
|-------------------------------------|------13---------------------|
|-------------------------------------|-----------------------------|
|-------------------------------------|-----------------------------|
|
|  |--3--|     |--3---|                       |--3--|       |--3--|
|  E  E  E Q   E   E  E     +Q           Q    E  E  E  Q    E  E  E
|-------------------------------------|-----------------------------|
|-12----------------------------------|-----------------------------|
|----12-------12--11-10----(10)-------|----------8---------10-------|
|-------12----------------------------|-------9-------11------11----|
|-------------------------------------|------------11------------11-|
|-------------------------------------|-----------------------------|


        |-3--|                               |--3---|       |3-|
   E E  Q    E  +Q       E.        S    Q   +E   E  E  E E  Q  E
|------------------------------------|----------------------------|
|-11---11----------------------------|----------------------------|
|-----------11-(11)---------------11-|-13--(13)-12-10-------------|
|------------------------------------|----------------13---11-13--|
|------------------------------------|----------------------------|
|------------------------------------|----------------------------|
|
|       |-3--|   |--3--| |--3---|
|  Q    E E  E   E  E  E E   E  E       W
|------------------------------------|----------------------------|
|------------------------------------|----------------------------|
|-------------------8-11-------11----|----------------------------|
|---------8-11---9-------9--12-------|----------------------------|
|-------9----------------------------|----------------------------|
|------------------------------------|----------------------------|


                  |--3--|    |3-|  |--3--|   |-3-|  |--3--|
   +Q   Q  E.  S  E  E  E    Q  E  Q     E   Q   E  E  E  E
|-------------------------|---------------------------------|
|-------------------------|---------------------------------|
|-------------------------|-13----11------------------------|
|-(13)-----------11-13-14-|----11-------11--14-----11-13-14-|
|-------------11----------|---------------------11----------|
|-------------------------|---------------------------------|
|
|                                  |--3--|
|   W                        Q     E  E  E  +Q      Q
|-------------------------|---------------------------------|
|-------------------------|---------------------------------|
|-------------------------|---------------------------------|
|-------------------------|-------13-14---------------------|
|-------------------------|-------------14-(14)-------------|
|-------------------------|---------------------------------|


   |3-|  |--3--|   |-3-|  |--3--|    |3-|  |--3--|   |-3-|  |--3--|
   Q  E  Q     E   Q   E  E  E  E    Q  E  Q     E   Q   E  E  E  E
|---------------------------------|-----------------------------------|
|---------------------------------|-----------------------------------|
|-13----11------------------------|-13----11---------------------11---|
|----11-------11--14-----11-13-14-|----11-------11--14--11-13-14------|
|---------------------11----------|-----------------------------------|
|---------------------------------|-----------------------------------|
|
|        |--3--|                           |--3--|
|  Q     E  E  E  +Q      Q          Q     E  E  E  +Q      Q
|---------------------------------|-----------------------------------|
|---------------------------------|-----------------------------------|
|---------------------------------|-------------13-(13)---------------|
|-------13-14---------------------|-------13-14-----------------------|
|-------------14-(14)-------------|-----------------------------------|
|---------------------------------|-----------------------------------|


                        |--3--|                                    |---3----|
   Q   Q         E.  S  E  E  E    E    E     Q.           +S   S  E  E     E
|-------------------------------|------------------------------------------------|
|----------------------------12-|-14---------------------------------------------|
|-13----------------13-13-14----|------------11-----------(11)-11-11-13----14----|
|-------------------------------|------------------------------------------------|
|-------------------------------|------------------------------------------------|
|-------------------------------|------------------------------------------------|
|
|      |--3--|                     |---3---|  |--3---|             |-----3-----|
|  Q   E  E  E  +Q      Q          E  E    E  E   E  E  Q          E     E     E
|-------------------------------|------------------------------------------------|
|-------------------------------|------------------------------------------------|
|-------------------------------|------------11----------------------------------|
|-----13-14---------------------|---------11-----11-14-13---------13-------------|
|-----------14-(14)-------------|----12---------------------------------14-------|
|-------------------------------|---------------------------------------------14-|


                                   |--3--|         |--3---|       |--3---|
   E    E     Q.             E     E  E  E    Q   +E   E  E  Q   +E   E  E
|------------------------------------------|---------------------------------|
|-12---------------------------------------|----------------12--(12)---------|
|------------------------------------11-13-|-14--(14)-13-11----------14-13---|
|------------14----------------------------|---------------------------------|
|------------------------------------------|---------------------------------|
|------------------------------------------|---------------------------------|
|
|  |---3---|  |--3---|  |---3---|  |--3--|         |--3---|       |--3---|
|  E  E    E  E   E  E  E  E    E  E  E  E    Q    E   E  E  Q    E   E  E
|------------------------------------------|---------------------------------|
|---------------------------------------12-|------11-------------12----------|
|------------------------------11-13-14----|----------11-------------13------|
|-------------------11-13-14---------------|-------------13-------------14---|
|----12---11-12--14------------------------|---------------------------------|
|------------------------------------------|---------------------------------|


             |--3---|             |--3--|
   Q        +E   E  E   Q         Q     E
|----------------------11-----------------|
|-14-------(14)-12---------------13----14-|
|------------------14---------------------|
|-----------------------------------------|
|-----------------------------------------|
|-----------------------------------------|
|
|  |--3--|   |-3-|      |--3---|  |--3--|
|  E  E  E   E   Q     +E   E  E  E  E  E
|-----------------------------------------|
|----14-11--------------------------------|
|-----------11----------------------------|
|---------------11----(11)-10----10----10-|
|-----------------------------11----11----|
|-----------------------------------------|


              |3-|                  |--3--|
   +H     Q   Q  E    +H     E.  S  E  E  E
|------------------|--------------------------||
|-(14)-------------|-------------------------o||
|------------11----|--------------------------||
|---------------14-|-(14)----------10-12-13---||
|------------------|------------10-----------o||
|------------------|--------------------------||
|
|             |3-|
|   H     Q   Q  E    +H     H
|------------------|--------------------------||
|------------------|-------------------------o||
|------------------|--------------------------||
|--11---------9----|--------------------------||
|---------------12-|-(12)--------------------o||
|------------------|--------------------------||
Добавлено: 18.02.2016
Другие материалы по этой песне:

Страница создана 15.02.2016
http://primanota.ru/misc-computer-games/gauntlet-song-d-chords.htm
Привет, Гость.
Предлагаем пройти революционный курс по гитаре.
Подарок от PrimaNota.Ru, забирай!