PrimaNota.ru - самый крупный в мире бесплатный архив песенных текстов, аккордов, табулатур и нот


Misc Computer Games - Free Realms Ost Briarheart - таба, видео

Регистрация Запомнить меня
Войти через:  Facebook Google Twitter Vk Yandex Mail.ru

Misc Computer Games - Free Realms Ost Briarheart - таба, видео

Печатать
Просмотров: 105
Уроки эстрадного вокала в Санкт-Петербурге
These are the three themes played throughout THIS OST, 
the themes should follow through the other 2 songs from the Briarwood area.

e|----------------------------------|
B|----------------------------------|
G|----------------------------------|
D|7---6---7---8---7-----------------|
A|-------------------8-7-5-7--------|
E|----------------------------------|

e|----------------------------------|
B|----------------------------------|
G|-------------------7--------------|
D|7---6---7---8---7-----------------|
A|---------------------8-7-5-----5--|
E|---------------------------8------|

e|----------------------------------|
B|----------------------------------|
G|7-----7------10-9-7--9-10-9---7---|
D|--8-----7-------------------------|
A|----------------------------------|
E|----------------------------------|

e|---------------------|  
B|---------------------|  
G|7-----------7--------|  
D|--10-9-9-10----7--6-7|   
A|---------------------|   
E|---------------------| 

e|---------------------|                         
B|---------------------|                     
G|---------------------|                   
D|---------------------|                   
A|5-7-8-8-7-5-7--------|
E|---------------------|

//Original tabbing - diingus
//Many thanks to YouTube user >Scott Cindershot< for ripping the OST and putting it up on YouTube
//His YouTube channel: https://www.youtube.com/user/ScottMoltendawn
//Thanks, Scotty-boy

Добавлено: 13.03.2016
Другие материалы по этой песне:
  • Аккорды и текст

Страница создана 13.03.2016
http://primanota.ru/misc-computer-games/free-realms-ost-briarheart-chords.htm
Привет, Гость.
Предлагаем пройти революционный курс по гитаре.
Подарок от PrimaNota.Ru, забирай!