PrimaNota.ru - самый крупный в мире бесплатный архив песенных текстов, аккордов, табулатур и нот


Misc Computer Games - Fly With Me In The Perfect World - таба, видео

Регистрация Запомнить меня
Войти через:  Facebook Google Twitter Vk Yandex Mail.ru

Misc Computer Games - Fly With Me In The Perfect World - таба, видео

Печатать
Просмотров: 214
-------------------------------------------------------------------------------
               Fly With Me In The Perfect World - Shui Mu Nian Hua
-------------------------------------------------------------------------------
Tabbed by: valve228
E-mail: valve228@gmail.com

This is solo tabs for the rock version of this song, not quite which in the game but with electro guitar

Tuning: Standard E

e|---------------------7-------------------------------------------------------------7--------------------|
B|----------9~\-----------11--9--------------------------9---------9------9------9------11--9----9~\------|
G|-8---11-----------------------11--8~\---------8---11--------8-11---8-11---8-11--------------11----------|
D|--------------------------------------------------------------------------------------------------------|
A|--------------------------------------------------------------------------------------------------------|
E|--------------------------------------------------------------------------------------------------------|

e|----------11\--9-------9-9.-9.-9-9-x-9--------11----------------------------------------------------------|
B|-9---12------------------9.-9.---9-x-9---9-12-------------------------------------------------------------|
G|--------------------------------------------------------------------------------------------------------|
D|--------------------------------------------------------------------------------------------------------|
A|--------------------------------------------------------------------------------------------------------|
E|--------------------------------------------------------------------------------------------------------|


************************************

| \   slide down
| ~   vibrato
| x   Mute note
| .   Staccato

************************************
Добавлено: 13.03.2016
Другие материалы по этой песне:
  • Аккорды и текст

Страница создана 13.03.2016
http://primanota.ru/misc-computer-games/fly-with-me-in-perfect-world-chords.htm
Привет, Гость.
Предлагаем пройти революционный курс по гитаре.
Подарок от PrimaNota.Ru, забирай!