PrimaNota.ru - самый крупный в мире бесплатный архив песенных текстов, аккордов, табулатур и нот


Misc Computer Games - Final Fantasy Vii - Victory Fanfare - таба, видео

Регистрация Запомнить меня
Войти через:  Facebook Google Twitter Vk Yandex Mail.ru

Misc Computer Games - Final Fantasy Vii - Victory Fanfare - таба, видео

Печатать
Просмотров: 68
-------------------------------------------------------------------------------
                             SONG NAME Victory Fanfare- Band Name FFVII
-------------------------------------------------------------------------------
Tabbed by:Oli :3
E-mail: x.oadversity@gmail.com

Tuning: half step down
                  
eb|5-9-5---5--5-9-5---57975--6-9-6-6-6-9-6--67976-----------------------------|
Bb|------7----------7------7------7-------7------7----------------------------|
Gb|---------------------------------------------------------------------------|
Db|---------------------------------------------------------------------------|
Ab|---------------------------------------------------------------------------|
Eb|---------------------------------------------------------------------------|

eb|5-9-5-5-5-9-5-57975--5-9-5--5-5-9-5--57975---------------------------------|
Bb|-----7-------7------7------6-------6-------6-------------------------------|
Gb|---------------------------------------------------------------------------|
Db|---------------------------------------------------------------------------|
Ab|---------------------------------------------------------------------------|
Eb|---------------------------------------------------------------------------|

eb|5-9-5-5-5-9-5-57975-6-9-6-6-6-9-6-67976------------------------------------|
Bb|-----7-------7-----7-----7-------7-----7-----------------------------------|
Gb|---------------------------------------------------------------------------|
Db|---------------------------------------------------------------------------|
Ab|---------------------------------------------------------------------------|
Eb|---------------------------------------------------------------------------|

eb|7-10-7-7-7-10-7-791097-(x2)-7-11-7-7-7-11-7-791197-------------------------|
Bb|------8--------8------8-----------9--------9------9------------------------|
Gb|---------------------------------------------------------------------------|
Db|---------------------------------------------------------------------------|
Ab|---------------------------------------------------------------------------|
Eb|---------------------------------------------------------------------------|




************************************

| /   slide up
| \   slide down
| h   hammer-on
| p   pull-off
| ~   vibrato
| +   harmonic
| x   Mute note
| b   Bend
| pb  Pre-bend
| br  Bend release
| pbr Pre-bend release
| brb Bend release bend

************************************
Добавлено: 13.03.2016
Другие материалы по этой песне:
  • Аккорды и текст

Страница создана 13.03.2016
http://primanota.ru/misc-computer-games/final-fantasy-vii-victory-fanfare-chords.htm
Привет, Гость.
Предлагаем пройти революционный курс по гитаре.
Подарок от PrimaNota.Ru, забирай!