PrimaNota.ru - самый крупный в мире бесплатный архив песенных текстов, аккордов, табулатур и нот


Misc Computer Games - Final Fantasy Town - таба, видео

Регистрация Запомнить меня
Войти через:  Facebook Google Twitter Vk Yandex Mail.ru

Misc Computer Games - Final Fantasy Town - таба, видео

Печатать
Просмотров: 91
my name: Mike D
my tab: the town song in final fantasy 1 for nintendo
notes: you really need to hear the song first before u can play this, just
buy an antique nintendo and the FF1 cartridge and spend an hour inside a
town. There might be missing a few notes but it sounds very good



                                                          
E||------------------------|---------------------------------|
B||---9----10----9----7----|--5----7----0--------------------|
G||*-----------------------|---------------------------------|
D||*-----------------------|---------------------------------|
A||------------------------|---------------------------------|
E||------------------------|---------------------------------|


                                                                  
----------------------|-------------------|----------------------|
--5----7----5----4----|--2----4-----------|--2----4----5----7----|
----------------------|------------1------|----------------------|
----------------------|-------------------|----------------------|
----------------------|-------------------|----------------------|
----------------------|-------------------|----------------------|


                                                              
-------------------------|--------------------------------|
--9----10----12----12----|--10----9----2--------2----4----|
-------------------------|--------------------------------|
-------------------------|--------------------------------|
-------------------------|--------------------------------|
-------------------------|--------------------------------|


                       
---------------------||
--9--------7---------||
--------------------*||
--------------------*||
---------------------||
---------------------||

     
Добавлено: 14.06.2013
Другие материалы по этой песне:
  • Аккорды и текст

Страница создана 14.06.2013
http://primanota.ru/misc-computer-games/final-fantasy-town-chords.htm
Привет, Гость.
Предлагаем пройти революционный курс по гитаре.
Подарок от PrimaNota.Ru, забирай!