PrimaNota.ru - самый крупный в мире бесплатный архив песенных текстов, аккордов, табулатур и нот


Misc Computer Games - Final Fantasy Maytoyas Cave - таба

Регистрация Запомнить меня
Войти через:  Facebook Google Twitter Vk Yandex Mail.ru

Misc Computer Games - Final Fantasy Maytoyas Cave - таба

Печатать
Просмотров: 84
Уроки эстрадного вокала в Санкт-Петербурге
                         Maytoya's Cave: Melody
By Nobuo Uematsu Copyright 1990 Squaresoft
Tabbed by James Dziezynski
Bruplex@aol.com
Here is the melody to Maytoya's Cave from the NES game Final Fantasy.
Listen to the MIDI to get the timing. Feel free to send me any corrections!


    Maytoya's Cave/Tempo=145                                            
E---||---------------------------------------------|--------------------
B---||---------7--------8-----7--------------------|----------10--------
G---||*-----7--------------------9--7-----9--7--6--|------11------------
D---||*--9--------9--------------------------------|--12----------12----
A---||---------------------------------------------|--------------------
E---||---------------------------------------------|--------------------
                                                                        

                                                                        
E------------------------------------|----------------------------------
B---12-----10------------------------|----------10----------------------
G-----------------12--11--12--11--9--|--11--12-------------9------------
D------------------------------------|--------------11-----------12-----
A------------------------------------|----------------------------------
E------------------------------------|----------------------------------
                                                                        

                                                                        
E--------------|----------------------------------------|----------9----
B--------------|------10--12----------------------------|--10--12-------
G--------------|--12-----------------12--11--12--11--9--|---------------
D---11--12--9--|--------------12------------------------|---------------
A--------------|----------------------------------------|---------------
E--------------|----------------------------------------|---------------
                                                                        

                                                                        
E---~~~----------9--12--10--9--10---------|-----------------------------
B--------10--12--------------------12~~~--|--10-------------------------
G-----------------------------------------|------12--11--9~~~-----------
D-----------------------------------------|--------------------10-------
A-----------------------------------------|-----------------------------
E-----------------------------------------|-----------------------------
                                                                        

                                                                        
E-----------------------------------|---------------------------|-------
B-----------------------------------|---------------------------|-------
G-------9---------------------------|---------------------------|-------
D---12-----12~~~--11------12~~~~~~--|--12--11--9--11--12~~~~~~--|-------
A---------------------12------------|---------------------------|-------
E-----------------------------------|---------------------------|-------
                                                                        

                                                                        
E---------------------------|-------------------------|-----------------
B---------------------------|--10--8--7--8--10~~~~~~--|-----------------
G---11--9------9--11~~~~~~--|-------------------------|--11p9-----------
D----------12---------------|-------------------------|--------12p11----
A---------------------------|-------------------------|-----------------
E---------------------------|-------------------------|-----------------
                                                                        

                                                                        
E-----------------||----------------------------------------------------
B-----------------||----------------------------------------------------
G----------------*||----------------------------------------------------
D---14p12p11-----*||----------------------------------------------------
A-----------h12---||----------------------------------------------------
E-----------------||----------------------------------------------------
                                                                        



========================================================================
==                       TABLATURE EXPLANATION                        ==
========================================================================

----------                ----------                ----t---
----5h8--- Hammeron       ----(8)--- Ghost          ----6--- Tap
----------                ---------- Note           --------
----5p8--- Pulloff        ----------                --------

----------                ----------                -----p--
----5/8--- Slide Up       -----x---- Dead           -----7-- Pop
----------                ---------- Note           --s-----
----5\8--- Slide Down     ----------                --5----- Slap 

----------                ||------|| Repeat         --------
----5~~~-- Vibrato        ||*----*||                ---5^--- Bend
----------                ||*----*||                --------
----------                ||------||                --------

----------                ----------                --------
-4:------- Time           ----------                --------
-4:------- Signature      ----------                --------
----------                ----------                --------

Rhythm:
  w = whole note            W = dotted whole
  h = half note             H = dotted half
  q = quarter note          Q = dotted quarter
  e = eighth note           E = dotted eighth
  s = sixteenth note        S = dotted sixteenth
  t = 32nd note             T = dotted 32nd
  x = 64th note             X = dotted 64th
  ^ = triplet

========================================================================
==               Created with BUCKET O' TAB for Windows               ==
==                  For more info email gse@his.com                   ==
========================================================================
     
Добавлено: 13.10.2013
Другие материалы по этой песне:
  • Аккорды и текст

Страница создана 13.10.2013
http://primanota.ru/misc-computer-games/final-fantasy-maytoyas-cave-chords.htm
Привет, Гость.
Предлагаем пройти революционный курс по гитаре.
Подарок от PrimaNota.Ru, забирай!