PrimaNota.ru - самый крупный в мире бесплатный архив песенных текстов, аккордов, табулатур и нот


Misc Computer Games - Final Fantasy Ix - Pandemonium The Castle Frozen In Time - таба, видео

Регистрация Запомнить меня
Войти через:  Facebook Google Twitter Vk Yandex Mail.ru

Misc Computer Games - Final Fantasy Ix - Pandemonium The Castle Frozen In Time - таба, видео

Печатать
Просмотров: 128
This is my first ASCII tab, I hope you like it. (The bars are sorted by number) 
The Bar numbering might be jumbled with the chord names.

Game - Final Fantasy IX
Composer - Nobuo Uematsu
Time Signature - 4/4 
Tempo - Quarter Note = 70 (70bpm)
Tuning - Standard E (EADGBE)

DmM7 = Dm (maj 7)

Legend
L - Tied note
x - Dead note
h - Hammer on/Pull off
b - Bend
s - Slide
~ - Vibrato
g - Ghost note
> - Accentuated note
t - Trill
M - Palm mute
. - Staccato
P - Popping (Bass)
S - Slapping (Bass)
+ - Tapping
W - Wide vibrato
< - Fade in
w - Whammy bar
= - Tremolo picking
v - Brush up
^ - Brush down
V - Pick stroke up
n - Pick stroke down


Rhythm Guitar:
  1     Am7        2     Am7        3     Fmaj7      4     G6   
E |--5--5--5--5----|--5--5--5--5----|--5--5--5--5----|--3--3--3--3----|
B |--5--5--5--5----|--5--5--5--5----|--5--5--5--5----|--3--3--3--3----|
G |--5--5--5--5----|--5--5--5--5----|--5--5--5--5----|--0--0--0--0----|
D |--5--5--5--5----|--5--5--5--5----|--7--7--7--7----|--2--2--2--2----|
A |--7--7--7--7----|--7--7--7--7----|--8--8--8--8----|--2--2--2--2----|
E |--5--5--5--5----|--5--5--5--5----|--5--5--5--5----|----------------|

  5     Am7        6     Am6        7     Fmaj7      8  Am   9  Am     
E |--5--5--5--5----|--5--5--5--5----|--5--5--5--5----|--0----|--0----|
B |--5--5--5--5----|--7--7--7--7----|--5--5--5--5----|--1----|--1----|
G |--5--5--5--5----|--5--5--5--5----|--5--5--5--5----|--2----|--2----|
D |--5--5--5--5----|--7--7--7--7----|--7--7--7--7----|--2----|--2----|
A |--7--7--7--7----|--7--7--7--7----|--8--8--8--8----|--0----|--0----|
E |--5--5--5--5----|--5--5--5--5----|--5--5--5--5----|--0----|--0----|

  10 G    11 F   12 Gsus4 13 Am  14 Dsus4 15 DmM7 16 D    17 F    18 E7
E |--3----|--1----|--3----|--0----|--0----|--1----|--2----|--1----|--0----|
B |--3----|--1----|--3----|--1----|--3----|--2----|--3----|--1----|--3----|
G |--0----|--2----|--0----|--2----|--0----|--2----|--2----|--2----|--1----|
D |--0----|--3----|--0----|--2----|--2----|--0----|--0----|--3----|--0----|
A |--2----|-------|--3----|--0----|--0----|--0----|--0----|-------|--2----|
E |--3----|-------|--3----|--0----|--0----|--1----|--0----|-------|--0----|


  19 Am   20 D7   21 F    22 D7   23 Dm7  24 G
E |--0----|--2----|--1----|--2----|--1----|--3----|
B |--1----|--1----|--1----|--1----|--1----|--3----|
G |--2----|--2----|--2----|--2----|--2----|--0----|
D |--2----|--0----|--3----|--0----|--0----|--0----|
A |--0----|-------|-------|-------|-------|--2----|
E |--0----|-------|-------|-------|-------|--3----|


Lead Guitar:
(Starts at Bar 9
  9                10               11                           12
E |----------------|----------------|----------------------------|-------|
B |----------------|----------------|----------------------------|-------|
G |--2-----4--5----|--7-----9--10---|--9-------------------------|-------|
D |----------------|----------------|-----------10-7L------------|--7----|
A |----------------|----------------|----------------------------|-------|
E |----------------|----------------|----------------------------|-------|

  13          14               15         16               17
E |---0--5----|--4--5--7-------|-----0L---|--0--------0----|--1-------------|
B |-----------|-----------9----|--10------|--------3-------|--------1-------|
G |-----------|----------------|----------|----------------|-----------2----|
D |-----------|----------------|----------|----------------|----------------|
A |-----------|----------------|----------|----------------|----------------|
E |-----------|----------------|----------|----------------|----------------|

  18               19                           20
E |-----0-----0----|----------------------------|----------------|
B |--------3-------|--1--------0----------------|-----------0----|
G |--1-------------|--------------2L------------|--2-----2-------|
D |----------------|----------------------------|----------------|
A |----------------|----------------------------|----------------|
E |----------------|----------------------------|----------------|

  21               22               23               24
E |----------------|----------------|----------------|-------|
B |--1-------------|-----3--1--0----|--1-----0--1----|--8----|
G |--------2-------|--1-------------|----------------|-------|
D |-----------3----|----------------|----------------|-------|
A |----------------|----------------|----------------|-------|
E |----------------|----------------|----------------|-------|


Bass Guitar:
  1                2                3                4
G |----------------|----------------|----------------|----------------|
D |----------------|----------------|----------------|----------------|
A |--0--0--0--0----|----------------|----------------|----------------|
E |----------------|--3--3--3--3----|--1--1--1--1----|--0--0--0--0----|

  5                6                7                8
G |----------------|----------------|----------------|-------|
D |----------------|----------------|----------------|-------|
A |--0--0--0--0----|--0--0--0--0----|--0--0--0--0----|--0----|
E |----------------|----------------|----------------|-------|

  9                10               11                           12
G |----------------|----------------|----------------------------|-------|
D |----------------|----------------|----------------------------|-------|
A |--0-----2--3----|--5-----7--8----|--7-------------------------|-------|
E |----------------|----------------|-----------8--5L------------|--5----|

  13         14               15         16               17
G |----------|----------------|----------|----------------|----------------|
D |----------|----------------|----------|----------------|----------------|
A |--7--12---|--11-12-14-11---|--12------|----------------|----------------|
E |----------|----------------|-----12---|--10----10-12---|--13----8--5----|

  18               19                           20  
G |----------------|----------------------------|----------------|
D |----------------|----------------------------|----------------|
A |-----7--5--7----|--3--------2--0L------------|--0-----0--2----|
E |--4-------------|----------------------------|----------------|

  21               22               23               24
G |----------------|----------------|----------------|-------|
D |----------------|----------------|----------------|--17---|
A |--3-----0-------|-----5--3--1----|--15----14-15---|-------|
E |-----------1----|--3-------------|----------------|-------|
Добавлено: 28.11.2013
Другие материалы по этой песне:
  • Аккорды и текст

Страница создана 28.11.2013
http://primanota.ru/misc-computer-games/final-fantasy-ix-pandemonium-the-castle-frozen-in-time-chords.htm
Привет, Гость.
Предлагаем пройти революционный курс по гитаре.
Подарок от PrimaNota.Ru, забирай!