PrimaNota.ru - самый крупный в мире бесплатный архив песенных текстов, аккордов, табулатур и нот


Misc Computer Games - Final Fantasy 7 - Bombing Mission - бас-таба, видео

Регистрация Запомнить меня
Войти через:  Facebook Google Twitter Vk Yandex Mail.ru

Misc Computer Games - Final Fantasy 7 - Bombing Mission - бас-таба, видео

Печатать
Просмотров: 117
=============================================
Final Fantasy 7 - Bombing Mission
as composed by Nobuo Uematsu
=============================================
Tabbed by Mikhajlovich
=============================================

Tuning: E A D G

LEGEND:

(time values)
E = eighth note
³ = triplet (note value reduced by a third)

Note: This entire song is done in eighth triplets - in other words, in a 4/4 time 
where there are four beats per measure, every three notes takes up one beat.

4/4, ♪=135

Part 1

 E³E³E³E³E³E³E³E³E³E³E³E³E³E³E³E³E³E³E³E³E³E³E³E³
|-----------------------|-----------------------|
|-----------------------|----------------------6|
|5-7-8-7-------6-5------|5-7-8-7-------6-5------|
|--------8-5-6-----5-4-8|--------8-5-6-----5-4--| (x6)

 E³E³E³E³E³E³E³E³E³E³E³E³E³E³E³E³E³E³E³E³E³E³E³E³
|-----------------------|----------------------6|
|5-7-8-7-------6-5------|5-7-8-7-------6-5------|
|--------8-5-6-----5-4-8|--------8-5-6-----5-4--|
|-----------------------|-----------------------| (x4)

 E³E³E³E³E³E³E³E³E³E³E³E³E³E³E³E³E³E³E³E³E³E³E³E³
|-----------------------|-----------------------|
|-----------------------|----------------------6|
|5-7-8-7-------6-5------|5-7-8-7-------6-5------|
|--------8-5-6-----5-4-8|--------8-5-6-----5-4--| (x4)

Part 2

 E³E³E³E³E³E³E³E³E³E³E³E³
|-----------------------|
|7-8-7---7---5---5------|
|------7---8---8---5-8-7|
|-----------------------| (x4)

 E³E³E³E³E³E³E³E³E³E³E³E³
|-----------------------|
|-----------------------|
|5-5-5-5-5-5-5-5-5-5-5-5|
|-----------------------| (x8)

 E³E³E³E³E³E³E³E³E³E³E³E³
|-----------------------|
|7-8-7---7---5---5------|
|------7---8---8---5-8-7|
|-----------------------| (x20)

 E³E³E³E³E³E³E³E³E³E³E³E³
|-----------------------|
|-----------------------|
|5-5-5-5-5-5-5-5-5-5-5-5|
|-----------------------| (x8)

 E³E³E³E³E³E³E³E³E³E³E³E³
|-----------------------|
|-----------------------|
|-----------------------|
|5-5-5-5-5-5-5-5-5-5-5-5| (x8)

Repeats from start, as per usual. Sorry for the crappy job dividing up the song into 
really is no good way to do it for one as repetitive as this one.
Добавлено: 20.05.2012
Другие материалы по этой песне:
  • Аккорды и текст

Страница создана 20.05.2012
http://primanota.ru/misc-computer-games/final-fantasy-7-bombing-mission-chords.htm
Привет, Гость.
Предлагаем пройти революционный курс по гитаре.
Подарок от PrimaNota.Ru, забирай!