PrimaNota.ru - самый крупный в мире бесплатный архив песенных текстов, аккордов, табулатур и нот


Misc Computer Games - Fighting Is Magic - Rainbow Dashs Stage Theme - таба, видео

Регистрация Запомнить меня
Войти через:  Facebook Google Twitter Vk Yandex Mail.ru

Misc Computer Games - Fighting Is Magic - Rainbow Dashs Stage Theme - таба, видео

Печатать
Просмотров: 98
If anyone finds any typos or parts that don't fit, email me at
dpapasian@gmail.com or pm me at my youtube account DPapa93 and I'll do my
best to fix it. Also I want to start making more tabs but I'm not sure what
to do next. Email or message me requests and I'll see what I can do.

Written by: RainbowCrash88
Tabbed by: DPapa93
Tuning: Drop D

Legend:
h:hammer on
p:pull off
/:slide up
\:slide down
^():bend (to pitch)
^()^:bend and release
~:let ring

Enjoy!
 

Intro
e|--------------------------------------------------|
B|--------------------------------------------------|
G|-7-7--3-3--5-5--2-2--------3--2~~~~~~~------------|
D|-7-7--3-3--5-5--2-2--0-2-3-3--2~~~~~~~------------|
A|-5-5--1-1--3-3--0-0--0-2-3-1--0~~~~~~~------------|
D|---------------------0-2-3------------------------|




Lead
e|--------------------------------------------------|
B|--------------------------------------------------|
G|-----------9/10-9-7-5/7-----------5---------------|
D|------------------------------------7-5-----------|
A|----------------------------------------8-8-------|
D|--------------------------------------------------|




Rhythm
e|----------------------------------------------------|
B|----------------------------------------------------|
G|-----7--5/7------------------7--5/7-----------------|
D|-----7--5/7------------------7--5/7-----------------|
A|-----5--3/5------------------5--3/5-----------------|
D|-0-0---------------------0-0------------------------|




Lead                         the harmony heard with this part is just an octave higher
e|---------------------------------------------------------|
B|-----------5h6p5--------------------5-6-8-10-10p9--------|
G|-----------------7-5------------5-7---------------10-9-7-|
D|---------------------7-----------------------------------|
A|-----------------------8-5-------------------------------|
D|---------------------------------------------------------|




Rhythm
e|-------------------------------------------------------|
B|-------------------------------------------------------|
G|-----7--5/7----------------------7---------------------|
D|-----7--5/7----------------------7-8-7-3-7-------------|
A|-----5--3/5----------------------5-8-7-3-7---0---------|
D|-0-0~~L~E~T~~R~I~N~G~~~~~~--0-0----8-7-3-7-----5-3-2-0-|





Both Parts
e|--------------------------------------------------|
B|--------------------------------------------------|
G|--------------------------------------------------|
D|-0--3--5-7-5-3------------------------------------|
A|-0--3--5-7-5-3------------------------------------|
D|-0--3--5-7-5-3------------------------------------|




Lead
e|-Match-bend-----------------------------------------------------------------|
B|----------------------------------------------------------------------------|
G|-7-----------------------------------------7------------7-------------7-----|
D|-10^(12)-----------(12)^10---------------------10---------10----------------|
A|---------------------------8h10-------8h10---8-----8h10------10--8h10---8\5-|
D|----------------------------------------------------------------------------|



Rhythm
e|--------------------------------------------------------|
B|--------------------------------------------------------|
G|--------------------------------------------------------|
D|-----0------0------0------0------3------3------3------3-|
A|-----0------0------0------0------3------3------3------3-|
D|-0-0-0--0-0-0--0-0-0--0-0-0--3-3-3--3-3-3--3-3-3--3-3-3-|





Rhythm cont.
e|--------------------------------------------------------|
B|--------------------------------------------------------|
G|--------------------------------------------------------|
D|-----2------2------3------3------0------0------0------0-|
A|-----2------2------3------3------0------0------0------0-|
D|-2-2-2--2-2-2--3-3-3--3-3-3--0-0-0--0-0-0--0-0-0--0-0-0-|





Both
e|--------------------------------------------------|
B|--------------------------------------------------|
G|--------------------------------------------------|
D|-3--7-3--0----------------------------------------|
A|-3--7-3--0----------------------------------------|
D|-3--7-3--0----------------------------------------|




Lead
e|-----------------------------------------------------------------------------------|
B|---------------------------------/15-13--------------------------------------------|
G|-------9----7------------9----7---------14-12--12h14p12----------12----------------|
D|-/7h10---10-----------/7---10--------------------------15-14h15----15-14--12----12-|
A|-----------------------------------------------------------------------------15----|
D|-----------------------------------------------------------------------------------|




Lead 2 (Harmony)
e|---------------------------------/17-15--------------------------------------------|
B|----------------------------------------17-15-15h17p15----------15-----------------|
G|-------------------------------------------------------17-15h17----17-15--14----14-|
D|-----------------------------------------------------------------------------17----|
A|-----------------------------------------------------------------------------------|
D|-----------------------------------------------------------------------------------|




Rhythm (same as previous)
e|--------------------------------------------------------|
B|--------------------------------------------------------|
G|--------------------------------------------------------|
D|-----0------0------0------0------3------3------3------3-|
A|-----0------0------0------0------3------3------3------3-|
D|-0-0-0--0-0-0--0-0-0--0-0-0--3-3-3--3-3-3--3-3-3--3-3-3-|





Rhythm cont.
e|------------------------------------------------------|
B|------------------------------------------------------|
G|------------------------------------------------------|
D|-----2------2------3------3------0------0------3--7-3-|
A|-----2------2------3------3------0------0------3--7-3-|
D|-2-2-2--2-2-2--3-3-3--3-3-3--0-0-0--0-0-0--0-0-3--7-3-|





Both
e|------------------------------------------------------------------------------|
B|------------------------------------------------------------------------------|
G|-----7--5/7-----7--5/7-----7--5/7---------------7--5/7-----7--5/7-----7--5/7--|
D|-----7--5/7-----7--5/7-----7--5/7------3h5p3----7--5/7-----7--5/7-----7--5/7--|
A|-----5--3/5--0--5--3/5--0--5--3/5--0---------0--5--3/5--0--5--5/7--0--5--3/5--|
D|-0-0---------0----------0----------0---------0----------0----------0----------|





Lead
e|-------------------------|
B|-10------------9---------|
G|----12^(14)------11^(13)-|
D|-------------------------|
A|-------------------------|
D|-------------------------|





Rhythm (In unison with Lead)
e|-------------------------|
B|-------------------------|
G|-------------------------|
D|-7--------------6--------|
A|-7--------------6--------|
D|-7--7-7---------6--6-6---|




Both
e|-------------------------------------------|
B|-------------------------------------------|
G|----7--5/7-----7--5/7-----7--5/7-----------|
D|----7--5/7-----7--5/7-----7--5/7-----3h5p5-|
A|-5--5--3/5--3--5--3/5-----5--3/5-----------|
D|-----------------------7----------6--------|




Both cont.
e|---------------------------------------------|
B|---------------------------------------------|
G|----7--5/7-----7--5/7-----7--5/7-------------|
D|----7--5/7-----7--5/7-----7--5/7-----3h5p3---|
A|-5--5--3/5--3--5--3/5-----5--3/5-----------5-|
D|-----------------------6----------7----------|




Lead
e|-------------------------------------------------------|
B|-------------------------------------------------------|
G|-------------------------------------------------------|
D|-3h5--5--5--5--3--3--3p0--------3----------------------|
A|-------------------------3h5--5---5--5p3-5p3-----------|
D|---------------------------------------------7p5-------|




Rhythm
e|---------------------------------------------------------|
B|---------------------------------------------------------|
G|-5-5--5--5--5--3--3--------------------------------------|
D|-5-5--5--5--5--3--3------0-0--0-3-0--0-0-0-0-0-----------|
A|-3-3--3--3--3--1--1------0-0--0-3-0--0-0-0-0-0-----------|
D|-------------------------0-0--0-3-0--0-0-0-0-0-----------|




Lead
e|-------------------------------------------------------|
B|-------------------------------------------------------|
G|-------------------------------------------------------|
D|-3h5--5-5/7-5--3--3--3p0--------3----------------------|
A|-------------------------3h5--5---5--5p3-5p3-----------|
D|---------------------------------------------7p5-------|



Rhythm
e|---------------------------------------------------------|
B|---------------------------------------------------------|
G|-5-5--5--5--5--3--3--------------------------------------|
D|-5-5--5--5--5--3--3------0-0--0-3-0--0-0-0-0-0-----------|
A|-3-3--3--3--3--1--1------0-0--0-3-0--0-0-0-0-0-----------|
D|-------------------------0-0--0-3-0--0-0-0-0-0-----------|





Lead 1
e|-------------------------------------------------------|
B|-------------------------------------------------------|
G|-------------------------------------------------------|
D|-3h5--5--5--5--3--3--3p0--------3----------------------|
A|-------------------------3h5--5---5--5p3-5p3-----------|
D|---------------------------------------------7p5-------|



Lead 2
e|--------------------------------------------------|
B|--------------------------------------------------|
G|-10h12--12-10-9-10-9------------------------------|
D|-------------------------10h12--12-12/15\12-------|
A|--------------------------------------------------|
D|--------------------------------------------------|



Rhythm
e|---------------------------------------------------------|
B|---------------------------------------------------------|
G|-5-5--5--5--5--3--3--------------------------------------|
D|-5-5--5--5--5--3--3------0-0--0-3-0--0-0-0-0-0-----------|
A|-3-3--3--3--3--1--1------0-0--0-3-0--0-0-0-0-0-----------|
D|-------------------------0-0--0-3-0--0-0-0-0-0-----------|





Lead 1
e|-------------------------|
B|-------------------------|
G|-------------------------|
D|-3h5--5-5/7-5--3--3--3p0-|
A|-------------------------|
D|-------------------------|




Lead 2
e|-------------------------|
B|-------------------------|
G|-10h12-12-12/14-12-10-10-|
D|-------------------------|
A|-------------------------|
D|-------------------------|




Rhythm
e|--------------------|
B|--------------------|
G|-5-5--5--5--5--3--3-|
D|-5-5--5--5--5--3--3-|
A|-3-3--3--3--3--1--1-|
D|--------------------|





Both
e|---------------------------------------------------------|
B|---------------------------------------------------------|
G|-7-7--7-7--7-7--7-7--7-7-5-5-7-7--7-7--7-7--7-7----------|
D|-7-7--7-7--7-7--7-7--7-7-5-5-7-7--7-7--7-7--7-7------3h5-|
A|-5-5--5-5--5-5--5-5--5-5-3-3-5-5--5-5--5-5--5-5--3h5-----|
D|---------------------------------------------------------|



Both cont.
e|-----------------------------------------------------------------|
B|-----------------------------------------------------------------|
G|-7-7--7-7--7-7--7-7--7-7-5-5-7-7--3-3--5-5------------5-5----7---|
D|-7-7--7-7--7-7--7-7--7-7-5-5-7-7--3-3--5-5--3--7p6-6--5-5----7---|
A|-5-5--5-5--5-5--5-5--5-5-3-3-5-5--1-1--3-3--3--7p6-6--3-3----5---|
D|--------------------------------------------3--7p6-6-------------|





Rhythm (Fill)
e|-----------------|
B|-----------------|
G|-----------------|
D|-----------------|
A|-5h7p5-0h1p0-----|
D|-------------3p0-|



Lead (At the Gala)
e|------------------------------------------------|
B|------------------------------------------------|
G|------------------------------------------------|
D|----12-10-10----12p10-10-----------10-----------|
A|-12----------12-----------12-12-12----12-10\8-8-|
D|------------------------------------------------|



Rhythm (more or less what the strings are playing in the background)
e|------------------------------------------------|
B|------------------------------------------------|
G|-7-7---------5-5--------------------------------|
D|-7-7---------5-5----------3-3-----------5--5--5-|
A|-5-5---------3-3----------3-3-----------5--5--5-|
D|--------------------------3-3-----------5--5--5-|




Lead
e|------------------------------------------------|
B|------------------------------------------------|
G|------------------------------------------------|
D|----12p10-10----12-10-10-----------10-----------|
A|-12----------12-----------12-12-12----12-10\8-8-|
D|------------------------------------------------|


Rhythm
e|------------------------------------------------|
B|------------------------------------------------|
G|-7-7---------5-5--------------------------------|
D|-7-7---------5-5----------3-3-----------5--5--5-|
A|-5-5---------3-3----------3-3-----------5--5--5-|
D|--------------------------3-3-----------5--5--5-|




Lead
e|----------------------------------------|
B|----------------------------------------|
G|--------------------10-10-10-9----------|
D|----10-10----12-10-------------10-12p10-|
A|-12-------12----------------------------|
D|----------------------------------------|





Harmony
e|-----------------------------------------|
B|--------------------13-13-13-12----------|
G|--------------------------------12-14p12-|
D|-----------------------------------------|
A|-----------------------------------------|
D|-----------------------------------------|




Rhythm
e|------------------------------------------------|
B|------------------------------------------------|
G|-7-7---------5-5--------------------------------|
D|-7-7---------5-5----------3-3-----------5--5--5-|
A|-5-5---------3-3----------3-3-----------5--5--5-|
D|--------------------------3-3-----------5--5--5-|




Lead
e|--------------------------------------------------------------------10------|
B|------------------------------------------------10---------10-------13^(15)-|
G|----------------9-10--------------------10--12--12^(14)-12----12-10---------|
D|-------12-10-10------10--10--12--10--10-------------------------------------|
A|-12-12----------------------------------------------------------------------|
D|----------------------------------------------------------------------------|




Harmony
e|------------------------------------------------12-----------------|
B|----------------------------------------13--15--15^(17)------------|
G|---------------------12--12--14--12--12----------------------------|
D|-------------------------------------------------------------------|
A|-------------------------------------------------------------------|
D|-------------------------------------------------------------------|




Rhythm
e|----------------------------------------------------------------|
B|----------------------------------------------------------------|
G|-----------2----2----3---3---7---5---5--------------------------|
D|-5----5----2----2----3---3---7---5---5---3---5---7------5-7-5-3-|
A|-5----5----0----0----1---1---5---3---3---3---5---7------5-7-5-3-|
D|-5----5----------------------------------3---5---7------5-7-5-3-|




Lead
e|---------------------------------------------------------------|
B|---------------------------------------------------------------|
G|------------9/10-9-7-5/7-----------------5---------------------|
D|-------------------------------------------7-5-----------------|
A|-----------------------------------------------8-8-------------|
D|---------------------------------------------------------------|





Harmony
e|------------7/8-7-5-3/5----------------------------------------|
B|-----------------------------------------8---------------------|
G|-------------------------------------------9-7-----------------|
D|-----------------------------------------------10-10-----------|
A|---------------------------------------------------------------|
D|---------------------------------------------------------------|





Rhythm
e|---------------------------------------------------------------|
B|---------------------------------------------------------------|
G|-----7--5/7-------------------------7--5/7---------------------|
D|-----7--5/7-------------------------7--5/7---------------------|
A|-----5--3/5-------------------------5--3/5---------------------|
D|-0-0--------0-0-0-0-0-0-0-0-0-0-0-0--------0-0-0-0-0-0-0-0-0-0-|





Lead
e|-------------------------------------------------------|
B|------------6p5----------------------------10--9--8----|
G|----------------7-7--5h7-------------------------------|
D|-------------------------------------------------------|
A|-------------------------------------------------------|
D|-------------------------------------------------------|





Harmony
e|------------8p7----------------------------17--16--15--|
B|----------------10-10--8p10----------------------------|
G|-------------------------------------------------------|
D|-------------------------------------------------------|
A|-------------------------------------------------------|
D|-------------------------------------------------------|





Rhythm
e|-------------------------------------------------------|
B|-------------------------------------------------------|
G|-----7--5/7-------------------------7--5/7-------------|
D|-----7--5/7-------------------------7--5/7-7---6---5---|
A|-----5--3/5-------------------------5--3/5-7---6---5---|
D|-0-0--------0-0-0-0-0-0-0-0-0-0-0-0--------7---6---5---|




Lead
e|--------------------------------5h6p5----------------------------|
B|---5h6-6-5----------------8-6---------6p5-----5h6---------6/8-6--|
G|-5---------7p5-7------7-5-7-5-------------7-5-----7---7-5-5/7-5--|
D|----------------------7-5-----------------------------7-5--------|
A|-----------------------------------------------------------------|
D|-----------------------------------------------------------------|




Rhythm
e|-----------------------------------------------------------------|
B|-----------------------------------------------------------------|
G|-5-5-5--3-3-3/7-7---------------5-5-5--3-3-3/7-7-----------------|
D|-5-5-5--3-3-3/7-7--0---3-5-5-3--5-5-5--3-3-3/7-7--0---3-5-5-3----|
A|-3-3-3--1-1-1/5-5--0---3-5-5-3--3-3-3--1-1-1/5-5--0---3-5-5-3----|
D|-------------------0---3-5-5-3--------------------0---3-5-5-3----|




Lead
e|---------------------------------|
B|-/6-5---8^(10)^8---------6/8-8-6-|
G|------7----------5h7--7--5/7-7-5-|
D|---------------------------------|
A|---------------------------------|
D|---------------------------------|




Harmony
e|-/8-7----10^(12)^10---------------|
B|------10------------8h10--10------|
G|----------------------------------|
D|----------------------------------|
A|----------------------------------|
D|----------------------------------|





Rhythm
e|-------------------------------|
B|-------------------------------|
G|-5-5-5--3-3-3/7-7--------------|
D|-5-5-5--3-3-3/7-7--0---3-5-5-3-|
A|-3-3-3--1-1-1/5-5--0---3-5-5-3-|
D|-------------------0---3-5-5-3-|





Lead
e|-10h13p10[x8]-10-----[x5]------------------------------------13-10~---|
B|--------------13^(15)-----(15)^13-12-13----------------10h13----------|
G|----------------------------------------------------------------------|
D|----------------------------------------------------------------------|
A|----------------------------------------------------------------------|
D|----------------------------------------------------------------------|





Harmony
e|----------------------------------------------------------------------|
B|----------------------------------------------------------------------|
G|-------------------------------------------------------------10-------|
D|---------------------------------------/12-10-------------10----12~---|
A|----------------------------------------------12-10----12-------------|
D|----------------------------------------------------------------------|





Rhythm
e|--------------------------------------------------------|
B|--------------------------------------------------------|
G|--------------------------------------------------------|
D|-0-0-0-3-5-3-0-0-0-3-5-3-0-0-0-3-5-3-0-0-0-3-5-3-0~-----|
A|-0-0-0-3-5-3-0-0-0-3-5-3-0-0-0-3-5-3-0-0-0-3-5-3-0~-----|
D|-0-0-0-3-5-3-0-0-0-3-5-3-0-0-0-3-5-3-0-0-0-3-5-3-0~-----|






Lead (Muffled reverby part)
e|-------------------------------------------------------------12-13--------------------|
B|----15p13-13----15/17-13------------13-----------------13h15-------13^(15)^13-12------|
G|-14----------14-----------14-14--14----14-12\10-10--14--------------------------------|
D|--------------------------------------------------------------------------------------|
A|--------------------------------------------------------------------------------------|
D|--------------------------------------------------------------------------------------|

No rythm part here but bass is playing the same notes as the chords during the Gala section.



Lead
e|-------------------------------------------------------|
B|-------------------------------------------------------|
G|-------------------------------------------------------|
D|-3h5--5--5--5--3--3--3p0--------3----------------------|
A|-------------------------3h5--5---5--5p3-5p3-----------|
D|---------------------------------------------7p5-------|




Rhythm
e|---------------------------------------------------------|
B|---------------------------------------------------------|
G|-5-5--5--5--5--3--3--------------------------------------|
D|-5-5--5--5--5--3--3------0-0--0-3-0--0-0-0-0-0-----------|
A|-3-3--3--3--3--1--1------0-0--0-3-0--0-0-0-0-0-----------|
D|-------------------------0-0--0-3-0--0-0-0-0-0-----------|





Lead 1
e|-------------------------|
B|-------------------------|
G|-------------------------|
D|-3h5--5-5/7-5--3--3------|
A|-------------------------|
D|-------------------------|




Lead 2
e|-------------------------|
B|-------------------------|
G|-10h12-12-12/14-12-10-10-|
D|-------------------------|
A|-------------------------|
D|-------------------------|




Rhythm
e|--------------------|
B|--------------------|
G|-5-5--5--5--5--3--3-|
D|-5-5--5--5--5--3--3-|
A|-3-3--3--3--3--1--1-|
D|--------------------|





Lead
e|---------------------------------------------------------|
B|-13^(15)-----------------15^(17)-------------------------|
G|------s-l-o-w--b-e-n-d----------s-l-o-w--r-e-l-e-a-s-e---|
D|---------------------------------------------------------|
A|---------------------------------------------------------|
D|---------------------------------------------------------|





Rhythm
e|---------------------------------------------------------|
B|---------------------------------------------------------|
G|-7-7--7-7--7-7--7-7--7-7-5-5-7-7--7-7--7-7--7-7----------|
D|-7-7--7-7--7-7--7-7--7-7-5-5-7-7--7-7--7-7--7-7------3h5-|
A|-5-5--5-5--5-5--5-5--5-5-3-3-5-5--5-5--5-5--5-5--3h5-----|
D|---------------------------------------------------------|




Rhythm cont.
e|----------------------------------------------------|
B|----------------------------------------------------|
G|-7-7--7-7--7-7--7-7--7-7-5-5-7-7--7-7--5-7----------|
D|-7-7--7-7--7-7--7-7--7-7-5-5-7-7--7-7--5-7----------|
A|-5-5--5-5--5-5--5-5--5-5-3-3-5-5--5-5--3-5----------|
D|----------------------------------------------------|



The End.
Добавлено: 13.06.2013
Другие материалы по этой песне:
  • Аккорды и текст

Страница создана 13.06.2013
http://primanota.ru/misc-computer-games/fighting-is-magic-rainbow-dashs-stage-theme-chords.htm
Привет, Гость.
Предлагаем пройти революционный курс по гитаре.
Подарок от PrimaNota.Ru, забирай!