PrimaNota.ru - самый крупный в мире бесплатный архив песенных текстов, аккордов, табулатур и нот


Misc Computer Games - Fallout 4 - Main Theme - таба, видео

Регистрация Запомнить меня
Войти через:  Facebook Google Twitter Vk Yandex Mail.ru

Misc Computer Games - Fallout 4 - Main Theme - таба, видео

Печатать
Просмотров: 351
Hey Guys, 
This tab might not be the greatest, but it's the best I can do,
Hope you enjoy,
NrGBuffalo

Standard Tuning
e|---------------------------------------------------------------------------|
A|---------------------------------------------------------------------------|
D|---------------------------------------------------------------------------|
G|---------------------------------------------------------------------------|
B|---9--------9--------5---9-------9---5---3---------------------------------|
E|---------------------------------------------------------------------------|

Verse Thing (not sure what to call it)
e|----7---9----------7---9-----------7-----9------------------7-----9--------|
A|------------8--------------8-------------------11----6---------------------|
D|---------------------------------------------------------------------------|
G|---------------------------------------------------------------------------|
B|---------------------------------------------------------------------------|
E|---------------------------------------------------------------------------|

Main Bit (probably what you're looking for)
e|---------------------------------------------------------------------------|
A|---9----7--------------------------------9-----1---------------------------|
D|------------5---3---1-------3----------------------5----3------------------|
G|---------------------------------------------------------------------------|
B|---------------------------------------------------------------------------|
E|---------------------------------------------------------------------------|

Next Verse Thing (still don't know what to call it)
e|---7---9---------------------------7----9-------------------------9----7---|
A|----------8---10---8--6-----------------------8----10----------------------|
D|---------------------------------------------------------------------------|
G|---------------------------------------------------------------------------|
B|---------------------------------------------------------------------------|
E|---------------------------------------------------------------------------|

e|-----4---5---7-----------6--------7------9---------------------------------|
A|-------------------8-----------------11-----10--8--6----10-14--14-11--10-13|
D|---------------------------------------------------------------------------|
D|---------------------------------------------------------------------------|
B|---------------------------------------------------------------------------|
E|---------------------------------------------------------------------------|

Main Bit (again) 
e|---------------------------------------------------------------------------|
A|------9-----7-----5---3---1-------3------9---11-----5--3-------------------|
D|---------------------------------------------------------------------------|
G|---------------------------------------------------------------------------|
B|---------------------------------------------------------------------------|
E|---------------------------------------------------------------------------|

Outro
e|---7---9-----------7------9------------------------------------------------|
A|-----------8---------------------------------------------------------------|
D|---------------------------------------------------------------------------|
G|---------------------------------------------------------------------------|
B|---------------------------------------------------------------------------|
E|---------------------------------------------------------------------------|

Добавлено: 13.03.2016
Другие материалы по этой песне:
  • Аккорды и текст

Страница создана 18.02.2016
http://primanota.ru/misc-computer-games/fallout-4-main-theme-chords.htm
Привет, Гость.
Предлагаем пройти революционный курс по гитаре.
Подарок от PrimaNota.Ru, забирай!