PrimaNota.ru - самый крупный в мире бесплатный архив песенных текстов, аккордов, табулатур и нот


Misc Computer Games - Earthbound - Onett - бас-таба, видео

Регистрация Запомнить меня
Войти через:  Facebook Google Twitter Vk Yandex Mail.ru

Misc Computer Games - Earthbound - Onett - бас-таба, видео

Печатать
Просмотров: 110
=================================================
EarthBound - Onett
as composed by Keiichi Suzuki and Hirokazu Tanaka
=================================================
Tabbed by Mikhajlovich
=================================================

Tuning: D A D G

LEGEND:

(time values)

Q = quarter note
E = eighth note
S = sixteenth note
. = dotted note (note length x 1.5)
_ = note continues into the next bar
R = rest (written within the tab)
dal segno (looks like %) = repeat previous bar


4/4, ♪=105

Intro 1

  Q E Q Q E E E E Q.Q E E E Q Q.
G|---------|---------|---------|
D|3---5-3--|----2-3-2|---------|
A|--------5|3-5------|5-2------|
D|--3------|---------|----7-6-5|

4/4, ♪=110

Intro 2

 E E E E E E E E            
|---------------|------|  
|----2----------|-O-/--| 
|3-5---3-5-0---3|--/-O-| 
|------------3--|------|  

Main Riff

 E E E E E E E E E E E E S S E E E
|---------------|-----------------|
|----2----------|----2------------|
|3-5---3-5-0---3|3-5---3-5-5-0---3|
|------------3--|--------------3--| (x4)

Bridge 1

 E H Q E Q.S E E Q.Q.E E E Q E E E H E
|----4-0|---------|---------|---------|
|3_3----|2-R------|0-5-R-3-6|7--------|
|-------|---------|---------|---------|
|-------|----7-R-6|---------|--9-6-3-R|

Main Riff

 E E E E E E E E E E E E S S E E E
|---------------|-----------------|
|----2----------|----2------------|
|3-5---3-5-0---3|3-5---3-5-5-0---3|
|------------3--|--------------3--| (x4)

Bridge 2

 H H Q E E H Q.E Q.E Q.E Q Q Q E E H Q.E H E E E Q.E E E E E E S S E E E
|2-1|0-0----|----0--|-------|-------|-----|-----------|-----------------|
|---|----4_4|3-3----|-------|-------|-----|-----------|-----------------|
|---|-------|-------|3---3-2|-------|-----|-----------|----------------2|
|---|-------|------5|--5----|7-7-6_6|5-4_4|3-0-6-4-5-6|3-0-4-5-5-5-4-5--|

Outro

 E E E E E E E E E E E E S S E E E
|---------------|-----------------|
|----2----------|----2------------|
|3-5---3-5-0---3|3-5---3-5-5-0---3|
|------------3--|--------------3--|

Song then repeats from Intro 2.
Добавлено: 23.04.2012
Другие материалы по этой песне:

Страница создана 23.04.2012
http://primanota.ru/misc-computer-games/earthbound-onett-chords.htm
Привет, Гость.
Предлагаем пройти революционный курс по гитаре.
Подарок от PrimaNota.Ru, забирай!