PrimaNota.ru - самый крупный в мире бесплатный архив песенных текстов, аккордов, табулатур и нот


Misc Computer Games - Earthbound - Fourside - бас-таба, видео

Регистрация Запомнить меня
Войти через:  Facebook Google Twitter Vk Yandex Mail.ru

Misc Computer Games - Earthbound - Fourside - бас-таба, видео

Печатать
Просмотров: 51
Уроки эстрадного вокала в Санкт-Петербурге
Earthbound - Fourside

Tabbed by: Ashy (XxThreeCheersxX)
E-mail: burdickash@gmail.com

Tuning: Drop D

Part I
G|---------------------------5~---------------------------------7~--------|
D|---------7~------------5--------------------7~------------5-------------|
A|-----5-------------3--------------------5-------------3-----------------|
D|-5----------------------------------5-----------------------------------|

G|-------5x--7x--------------|
D|---6x----------4x----------|
A|-5-----------------5--5-5--|
D|---------------------------|

Part II 
G|----------------------------------------------------------------6--|
D|---------7----------5----------7---------------------2-------------|
A|-----5----------3----------5----------3----------2------0---7------|
D|-5----------3----------5----------3-------3--2---------------------|

G|-----2----------2------------------------------------------------------------------------|
D|-4----------4----------------------------------------------------------2------0-------0--|
A|---------0----------0--0-------0----------0--2-------2------2------0-------0------0------|
D|---------------------------2------0----5---------4------2-------2------------------------|

G|---------------------------------------------|
D|---------7----------5----------7-------------|
A|-----5----------3----------5----------3------| x 2
D|-5----------3----------5----------3-------3--|

G|----------------------------------------------------------------6--|
D|---------7----------5----------7---------------------2-------------|
A|-----5----------3----------5----------3----------2------0---7------|
D|-5----------3----------5----------3-------3--2---------------------|

G|-----2----------2------------------------------------------------------------------------|
D|-4----------4----------------------------------------------------------2------0-------0--|
A|---------0----------0--0-------0----------0--2-------2------2------0-------0------0------|
D|---------------------------2------0----5---------4------2-------2------------------------|

Part III
G|------------------------------------------------------------------|
D|---------7----------5----------7----------------4-----------------|
A|-----5----------3----------5-----------3----22------2------4------|
D|-5----------3----------5----------3--------------------4-------4--|

G|------------------------------------------------------------------------|
D|------4-----------4-----------4----------------------4-----------4------|
A|-22-------2--22-------2--22-------2------4------22-------2--22-------2--|
D|-------------------------------------4-------4--------------------------|

G|-------------------------------------------------------------------|
D|-------------------------------------------------------------------|
A|-----0------0-------0------0----------0----------0----------2------|
D|-0-------0------2------0-------0--0-------0--0-------0--2-------2--|

Part IV
G|------------5--------------------------------------------------------------------|
D|---------7------4---2----------------------5--------------33------------------5--|
A|-0---7---------------------------------3-----------------------3----------3------|
D|-----------------------33---2---3--3----------33---2---3-----------3--3----------|

G|--------------------------------------------------|
D|-3------------------2--1----0---------------------|
A|-----3----------3----------------2~---------------|
D|---------3--3-------------------------------------|

Then cycle back and play parts II and III over again

Happy playing!

| /  slide up
| \  slide down
| h  hammer-on
| p  pull-off
| ~  vibrato
| +  harmonic
| x  Mute note
===============================================================================
Добавлено: 21.08.2015
Другие материалы по этой песне:

Страница создана 25.04.2012
http://primanota.ru/misc-computer-games/earthbound-fourside-chords.htm
Привет, Гость.
Предлагаем пройти революционный курс по гитаре.
Подарок от PrimaNota.Ru, забирай!