PrimaNota.ru - самый крупный в мире бесплатный архив песенных текстов, аккордов, табулатур и нот


Misc Computer Games - Donkey Kong Jr Theme - таба, видео

Регистрация Запомнить меня
Войти через:  Facebook Google Twitter Vk Yandex Mail.ru

Misc Computer Games - Donkey Kong Jr Theme - таба, видео

Печатать
Просмотров: 144
donkey kong jr theme and level 1


donkey kong jr


TRANSCRIBED BY RUDY GUZMAN


guzman_84@hotmail.com




this is the intro and the first 2 stages of level 1




                    intro
   *******toccata mario lifting donkey kong*****                                             
e:------------------------------------------------------------------9h10p9h10p9h10p9-|
B:-------------------------------------------------------------8-11------------------|
G:---------------------------------------------------------6-9-----------------------|
D:-7p5-7~~~--5-3-2-0-----0---7p5-7~~~--2--3-----0------5-8---------------------------|
A:--------------------4----------------------4-----4-7-------------------------------|
E:-----------------------------------------------------------------------------------|

  level 1
e:----------------------------------------------------------------------------|
B:----------------------------------------------------------------------------|
G:----------------------------------------------------------------------------|
D:-1-------1-1--------3-------3-3--------1-------1-1--------3-------3-3-------|
A:---3-1-3-----3-1-3----5-3-5-----5-3-5----3-1-3-----3-1-3----5-3-5-----5-3-5-|
E:----------------------------------------------------------------------------|


   ending mario pushing donkey kong
gt1
e:---6---6-------6---6-------6---6-----10--13----------|
B:-6---6----6--5---5----5--4---4----4------------------|
G:---------------------------------------------10------|
D:-----------------------------------------------------|
A:-------------------------------------------------8---|
E:-----------------------------------------------------|
gt2
e:-----------------------------------------------------|
B:-----------------------------6--/6-------------------|
G:---------------------------7-------------------------|
D:---------------------5-8-5----------3----------------|
A:---5-8-5----4-7-4--6---------------------------------|
E:-6--------5------------------------------------------|


   ****blue bird stage***
e:--------------------------------------------------------------|
B:--------------------------------------------------------------|
G:--------------------------------------------------------------|
D:--------------------------------------------------------------|
A:-6-6----6-6----6-6----6--5-6-7--8-8----8-8----8-8----8--7-8-9-|
E:------6------6------6----------------8------8------8----------|


  ****donkey kong junior catches papa****
e:----13-10--------13-10-----------10--13-11-10-----|
B:-11-------11--10-------10-----11---------------13-|
G:---------------------------12---------------------|
D:--------------------------------------------------|
A:--------------------------------------------------|
E:--------------------------------------------------|

e:----13-10--------13-10-----------10--13-10---------|
B:-11-------11--10-------10-----11------------13--11-|
G:---------------------------12----------------------|
D:---------------------------------------------------|
A:---------------------------------------------------|
E:---------------------------------------------------|


level 2 bird egg stage, mario takes DK

e:-----9-11-12--11--9---------------|
B:-12--9-11-12--11--9--12--11-9-----|
G:-11------------------11--11-9--11-|
D:-------------------------------11-|
A:----------------------------------|
E:----------------------------------|


e:-----9-11-12--11--9----------|
B:-12--9-11-12--11--9--12--11--|
G:-11------------------11--11--|
D:-----------------------------|
A:-----------------------------|
E:-----------------------------|


hillo son mex

21/04/11
Добавлено: 21.07.2012
Другие материалы по этой песне:

Страница создана 14.05.2012
http://primanota.ru/misc-computer-games/donkey-kong-jr-theme-chords.htm
Привет, Гость.
Предлагаем пройти революционный курс по гитаре.
Подарок от PrimaNota.Ru, забирай!