PrimaNota.ru - самый крупный в мире бесплатный архив песенных текстов, аккордов, табулатур и нот


Misc Computer Games - Donkey Kong Country 2 - Snakey Chantey - бас-таба, видео

Регистрация Запомнить меня
Войти через:  Facebook Google Twitter Vk Yandex Mail.ru

Misc Computer Games - Donkey Kong Country 2 - Snakey Chantey - бас-таба, видео

Печатать
Просмотров: 61
Новый альбом группы 'Черный Кузнец' по культовому сериалу 'Сверхъестественное'!
Donkey Kong Country 2 - Snakey Chantey (David Wise)

Tabbed by: Ash (XxThreeCheersxX)
E-mail: burdickash@gmail.com

Tuning: Drop D

Part I (no bass)

Part II
G|--------------------------------------------------|
D|--------------------------------------------------|
A|----------------------0--1--1--1--1--1--1--1--0-3-|
D|-3--3--3--3--3--3--5------------------------------|

G|----------------------------------------------------|
D|----------------------------------------------------|
A|-------------------------0-1--1--3--3-----1-3--3----|
D|-3--3--3--3--3--3--3-3-5---------------3---------3--|

G|--------------------------------------------------|
D|--------------------------------------------------|
A|----------------------0--1--1--1--1--1--1--1--0-3-|
D|-3--3--3--3--3--3--5------------------------------|

G|----------------------------------------------------------------------------|
D|----------------------------------------------------------------------------|
A|-------------------------0-1--1--3--3-----2-1--2----1--1--3--3-----------0--|
D|-3--3--3--3--3--3--3-3-5---------------3---------3--------------3--3--5-----|

Part III
G|-------------------------------------------------|
D|-------------------------------------------------|
A|-1--1--1--1--1--1--1--0-----------------------0--|
D|-------------------------3--3--3--3--3--3--5-----|

G|--------------------------------------------------|
D|--------------------------------------------------|
A|-1--1--1--1--1--1--0-1-3--3--3--3--3-----------0--|
D|--------------------------------------3--3--5-----|

G|-------------------------------------------------|
D|-------------------------------------------------|
A|-1--1--1--1--1--1--2--3--4--4--0--0--------------|
D|-------------------------------------0--0--2--3--|

G|----------------------------------------------------------|
D|----------------------------------------------------0--2--|
A|--------------------------0-1--3----3----0-1--3--3--------| (repeat back to Part II)
D|-5----5----0-3--5----5------------------------------------|

Happy playing!

| /  slide up
| \  slide down
| h  hammer-on
| p  pull-off
| ~  vibrato
| +  harmonic
| x  Mute note
===============================================================================
Добавлено: 19.02.2018
Другие материалы по этой песне:
  • Аккорды и текст

Страница создана 19.02.2018
http://primanota.ru/misc-computer-games/donkey-kong-country-2-snakey-chantey-chords.htm
Привет, Гость.
Предлагаем пройти революционный курс по гитаре.
Подарок от PrimaNota.Ru, забирай!