PrimaNota.ru - самый крупный в мире бесплатный архив песенных текстов, аккордов, табулатур и нот


Misc Computer Games - Donkey Kong Country 2 - Mining Melancholy - бас-таба, видео

Регистрация Запомнить меня
Войти через:  Facebook Google Twitter Vk Yandex Mail.ru

Misc Computer Games - Donkey Kong Country 2 - Mining Melancholy - бас-таба, видео

Печатать
Просмотров: 75
Новый альбом группы 'Черный Кузнец' по культовому сериалу 'Сверхъестественное'!
Donkey Kong Country 2 - Mining Melancholy

Tabbed by: Ash (XxThreeCheersxX)
E-mail: burdickash@gmail.com

Tuning: Drop D

I.
G|--------------------------------------------------------------------------------|
D|--------------------------------------------------------------------------------|
A|---------5----------------5--3-5----------------5----------------5-5-3-5--------| x 2
D|-0-3-0-3----------0-3-0-3---------------0-3-0-3----------0-3-0-3----------------|

II. 
G|------------------------------------------------------------------------------|
D|------------------------------------------------------------------------------|
A|------1~--------3~--------0~--------5~----1~--------3~--------5~--------------|
D|-0-3--------------------------------------------------------------------------|

G|---------------------------------------------------------|
D|---------------------------------------------------------|
A|-1~--------3~--------0~--------5~----1~--------3~--------|
D|---------------------------------------------------------|

I. x 1

III.
G|---------------------------------------------------------|
D|---------------------------------------------------------|
A|---------------------------------------------------------|
D|-0-3--0~-------------------------------------------------|

IV. (this is the melody towards the end tabbed for bass, because I thought it was cool)
G|-----------------------------------------------------------------------------|
D|-0--3----5--2----------------0------2--3----5--2---------0~------------------|
A|-------------------3----0---------------------------3------------------------|
D|-----------------------------------------------------------------------------|

G|---------------------2----3--2--0--------------------------------------------|
D|-2--3----5--2------------------------2----3----5--2---------0~---------------|
A|-------------------------------------------------------3---------------------|
D|-----------------------------------------------------------------------------|

Happy playing!

| /  slide up
| \  slide down
| h  hammer-on
| p  pull-off
| ~  vibrato
| +  harmonic
| x  Mute note
===============================================================================
Добавлено: 19.02.2018
Другие материалы по этой песне:
  • Аккорды и текст

Страница создана 19.02.2018
http://primanota.ru/misc-computer-games/donkey-kong-country-2-mining-melancholy-chords.htm
Привет, Гость.
Предлагаем пройти революционный курс по гитаре.
Подарок от PrimaNota.Ru, забирай!