PrimaNota.ru - самый крупный в мире бесплатный архив песенных текстов, аккордов, табулатур и нот


Misc Computer Games - Donkey Kong Country 2 - Forest Interlude - бас-таба, видео

Регистрация Запомнить меня
Войти через:  Facebook Google Twitter Vk Yandex Mail.ru

Misc Computer Games - Donkey Kong Country 2 - Forest Interlude - бас-таба, видео

Печатать
Просмотров: 84
Новый альбом группы 'Черный Кузнец' по культовому сериалу 'Сверхъестественное'!
Donkey Kong Country 2 - Forest Interlude (David Wise)

Tabbed by: Ash (XxThreeCheersxX)
E-mail: burdickash@gmail.com

Tuning: Drop D

Part I
G|---------------------------------------|
D|---------------------------------------|
A|---------------------1~----------------| x 4
D|-6~--------3~--------------------------|

Part II
G|-------------------------------------------------------------------------------------|
D|-------------------------------------------------------------------------------------|
A|---------------------------------------1--2--3--3-3----3-3--3----3--3-3----3-3--3----| x 3
D|-3--3-3----3-3--3----3--3-3----3-3--3------------------------------------------------|

G|---------------------------------------------------------------------------------------------------------|
D|---------------------------------------------------------------------------------------------------------|
A|-1--1-1----1-1--1----------------------1--2--3--3-3----3-3--3----3--3-3----3-3--3----3--3-3----3-3--3----|
D|--------------------3--3-3-----3-3--3--------------------------------------------------------------------|

Part III
G|---------------------------------------------------------------------------------------------|
D|---------------------------------------------------------------------------------------------|
A|-5--5-5----5-5--5-------------------------------0--0-0----0-0--0--3-5-3--3-3----3-3--3--3----| x 2
D|-------------------0--2--3--3-3----3-3--3--3-------------------------------------------------|

Part IV
G|---------------------------------------------------------------------------------------------|
D|---------------------------------------------------------------------------------------------|
A|-5--5-5----5-5--5--5----4--4-4----4-4--4--4----3--3-3----3-3--3--3----1--1-1----1-1--1--0----|
D|---------------------------------------------------------------------------------------------|

G|---------------------------------------------------------------------------------|
D|---------------------------------------------------------------------------------|
A|-----------------------------------------1--1-1----1-1--1----1--1-1----1-1--1----|
D|-6--6-6----6-6--6----3--3-3----3-3--3--------------------------------------------|

Happy playing!

| /  slide up
| \  slide down
| h  hammer-on
| p  pull-off
| ~  vibrato
| +  harmonic
| x  Mute note
===============================================================================
Добавлено: 19.02.2018
Другие материалы по этой песне:
  • Аккорды и текст

Страница создана 19.02.2018
http://primanota.ru/misc-computer-games/donkey-kong-country-2-forest-interlude-chords.htm
Привет, Гость.
Предлагаем пройти революционный курс по гитаре.
Подарок от PrimaNota.Ru, забирай!