PrimaNota.ru - самый крупный в мире бесплатный архив песенных текстов, аккордов, табулатур и нот


Misc Computer Games - Donkey Kong Country 2 - Crocodile Cacophony - бас-таба, видео

Регистрация Запомнить меня
Войти через:  Facebook Google Twitter Vk Yandex Mail.ru

Misc Computer Games - Donkey Kong Country 2 - Crocodile Cacophony - бас-таба, видео

Печатать
Просмотров: 74
Новый альбом группы 'Черный Кузнец' по культовому сериалу 'Сверхъестественное'!
Donkey Kong Country - 
Tabbed by: Ash (XxThreeCheersxX)
E-mail: burdickash@gmail.com

Tuning: Standard

I.
G|-----------------------------------------------------|
D|-----------------------------------------------------|
A|--5-5x---------5-5x----------5-5x--------5-5x--------|
E|-----------------------------------------------------|

II. (alternatively, you could just play quarter notes)
G|-----------------------------------------------------|
D|-----------------------------------------------------|
A|-----------------------------------------------------| x 4
E|-3-3-3-3-3----3-3-3-3-3----3-3-3-3-3----3-3-3-3-3----|

III. (solo)
G|--------------------------------------------------|
D|--------------------------------------------------|
A|---------1-----------1------------1---------------|
E|-3-3-3-3----3----3-3------3-3-3-3---3----3-3-2----|

G|--------------------------------------------------|
D|--------------------------------------------------|
A|---------1-----------1------------1---------------|
E|-3-3-3-3----3----3-3------3-3-3-3---3----3-3-5----|

IV. (no bass here, but I love this melody, so here you go)
G|------------0--2-------0----0----0--2----------|
D|-0----0--3----------3---------3--------3--0----|
A|-----------------------------------------------|
E|-----------------------------------------------|

G|------------0--2-------0--0------------------|
D|-0----0--3----------3--------3--2--0---------|
A|---------------------------------------------|
E|---------------------------------------------|

V. 
G|-------------------------------------------------|
D|-------------------------------------------------|
A|-------------------------------------------------| x 4
E|-5--5--5--5--5--5--5--5--5--5--5--5--5--5--5--5--|

Happy playing!

| /  slide up
| \  slide down
| h  hammer-on
| p  pull-off
| ~  vibrato
| +  harmonic
| x  Mute note
===============================================================================
Добавлено: 19.02.2018
Другие материалы по этой песне:
  • Аккорды и текст

Страница создана 19.02.2018
http://primanota.ru/misc-computer-games/donkey-kong-country-2-crocodile-cacophony-chords.htm
Привет, Гость.
Предлагаем пройти революционный курс по гитаре.
Подарок от PrimaNota.Ru, забирай!