PrimaNota.ru - самый крупный в мире бесплатный архив песенных текстов, аккордов, табулатур и нот


Misc Computer Games - Demons Souls - Maiden In Black - таба, видео

Регистрация Запомнить меня
Войти через:  Facebook Google Twitter Vk Yandex Mail.ru

Misc Computer Games - Demons Souls - Maiden In Black - таба, видео

Печатать
Просмотров: 171
Уроки эстрадного вокала в Санкт-Петербурге
This is in Drop D, but you can play with normal tuning if you miss out the bass notes.
Here is the music for reference: http://www.youtube.com/watch?v=aY-CEFD8X1Q

0:00
e|-----------3--| x3
B|--4-----1-----|
G|-----0--------|
D|--------------|
A|--3-----------|
E|--------------|

0:36
e|-----------3--|
B|--4-----------|
G|-----0--3-----|
D|--------------|
A|--------------|
E|--5-----------|

0:48
e|-----------5--| 
B|--4-----1-----|
G|-----2--------|
D|--------------|
A|--------------|
E|--4-----------|

1:01
e|-----------5--| 
B|--4-----1-----|
G|-----2--------|
D|--------------|
A|--------------|
E|--3-----------|

1:13
e|-----------7--| 
B|--3-----0-----|
G|-----0--------|
D|--------------|
A|--------------|
E|--2-----------|

1:25
e|-----------6--| 
B|--3-----------|
G|-----0--3-----|
D|--------------|
A|--------------|
E|--1-----------|

1:37
e|-----------5--| 
B|--3-----------|
G|--------2-----|
D|-----4--------|
A|--------------|
E|--0-----------|

1:49
e|--0--------3--| 
B|--------------|
G|-----0--3-----|
D|--------------|
A|--4-----------|
E|--------------|

2:01
e|--15--11--------------| x3
B|----------13----------|
G|--------------12------|
D|------------------13--|
A|----------------------|
E|--10------------------|

2:37
e|--15--11--------------|
B|----------11----------|
G|--------------12------|
D|------------------13--|
A|----------------------|
E|--10------------------|

2:49
e|--17------------------| 
B|------15--------------|
G|----------14--11------|
D|------------------12--|
A|--0-------------------|
E|----------------------|

3:01
e|--17------------------| 
B|------16--13----------|
G|--------------14------|
D|------------------15--|
A|--0-------------------|
E|----------------------|

3:13
e|--20------------------| 
B|------15--------------|
G|----------16----------|
D|--------------17--14--|
A|----------------------|
E|--14------------------| 

3:25
e|--15------------------| 
B|------15--11----------|
G|--------------12------|
D|------------------12--|
A|----------------------|
E|--13------------------|

3:37
e|--14--10--------------| 
B|----------10----------|
G|--------------11------|
D|------------------12--|
A|----------------------|
E|---0------------------|

3:48
e|--12------------------| 
B|------11--------------|
G|----------12------9---|
D|--------------11------|
A|----------------------|
E|--11------------------|

4:00
e|-----------3--| x2
B|--4-----1-----|
G|-----0--------|
D|--------------|
A|--3-----------|
E|--------------|

Original music composed by Shunsuke Kida - http://www.myspace.com/shunsukekida
Добавлено: 12.06.2013
Другие материалы по этой песне:

Страница создана 12.06.2013
http://primanota.ru/misc-computer-games/demons-souls-maiden-in-black-chords.htm
Привет, Гость.
Предлагаем пройти революционный курс по гитаре.
Подарок от PrimaNota.Ru, забирай!