PrimaNota.ru - самый крупный в мире бесплатный архив песенных текстов, аккордов, табулатур и нот


Misc Computer Games - Chrono Trigger - Those Without The Will To Live - бас-таба, видео

Регистрация Запомнить меня
Войти через:  Facebook Google Twitter Vk Yandex Mail.ru

Misc Computer Games - Chrono Trigger - Those Without The Will To Live - бас-таба, видео

Печатать
Просмотров: 66
Chrono Trigger - Those Without the Will to Live

Tabbed by: XxThreeCheersxX
E-mail: phantomhiveghost@gmail.com

Tuning: Drop D

Part I
G|----------------------------------------|
D|----------------2-----------------------|
A|------0-3----------------0-3-4-5--------| x 4
D|-0~--------0~-------0~------------6-0~--|

-BREAK-

Part II
G|--------------------------------------|
D|---7~-----6~-----7~------6~----6~/18--|
A|-5------5------5-------5--------------|
D|--------------------------------------|

Happy playing!
Добавлено: 24.07.2013
Другие материалы по этой песне:
  • Аккорды и текст

Страница создана 24.07.2013
http://primanota.ru/misc-computer-games/chrono-trigger-those-without-the-will-to-live-chords.htm
Привет, Гость.
Предлагаем пройти революционный курс по гитаре.
Подарок от PrimaNota.Ru, забирай!