PrimaNota.ru - самый крупный в мире бесплатный архив песенных текстов, аккордов, табулатур и нот


Misc Computer Games - Chrono Trigger - Johnnys Robo Gang - бас-таба, видео

Регистрация Запомнить меня
Войти через:  Facebook Google Twitter Vk Yandex Mail.ru

Misc Computer Games - Chrono Trigger - Johnnys Robo Gang - бас-таба, видео

Печатать
Просмотров: 113
Уроки эстрадного вокала в Санкт-Петербурге
Chrono Trigger - Johnny's Robo Gang

Tabbed by: XxThreeCheersxX
E-mail: phantomhiveghost@gmail.com

Tuning: Drop D

Part I
G|-------------------3-4-3-4---|
D|-2---2-------2---2-----------|
A|-------2---2-----------------|
D|-----------------------------|

G|---------------S|
D|-2---2-------2-T|
A|-------2---2---O|
D|---------------P|

Part II
G|-------------------3-4-3-4---|
D|-2---2-------2---2-----------|
A|-------2---2-----------------| x 4
D|-----------------------------|

Part III (note: the 2-1 at the end is a pickup for the next line)
G|-------------------------------------------------------|
D|-------------------------------------------------------|
A|-0---0-------2---2------------0-1-2---------------2-1--|
E|-------2---2-------4---4--2-5-------5-2-0--1--2--------|

G|-------------------------------------------------|
D|-------------------------------------------------|
A|-0---0-------2---2------------0-1-2------2-0-1-2-|
E|-------2---2-------4---4--2-5-------5-2----------|

Then clean rinse and repeat.
Happy playing!
If you have corrections, email 
Добавлено: 17.06.2013
Другие материалы по этой песне:
  • Аккорды и текст

Страница создана 17.06.2013
http://primanota.ru/misc-computer-games/chrono-trigger-johnnys-robo-gang-chords.htm
Привет, Гость.
Предлагаем пройти революционный курс по гитаре.
Подарок от PrimaNota.Ru, забирай!