PrimaNota.ru - самый крупный в мире бесплатный архив песенных текстов, аккордов, табулатур и нот


Misc Computer Games - Chrono Trigger - Frogs Theme - таба, бас-таба, видео

Регистрация Запомнить меня
Войти через:  Facebook Google Twitter Vk Yandex Mail.ru

Misc Computer Games - Chrono Trigger - Frogs Theme - таба, бас-таба, видео

Печатать
Просмотров: 113
Chrono Trigger - Frogs Theme
This is a really cool and easy CT Theme. It was really easy to figure out. Hope you injoy. :)



     |--3--|            |--3-|     |--3--|                 
     E  E  E  Q    Q    Q    E     E  E  E  H.             
E||-----------------------------|-------------------------|
B||-----------------------------|-------------------------|
G||---------------------3----4--|--3-----3----------------|
D||--6--4--6-------6------------|-----6-----4~------------|
A||-----------6-----------------|-------------------------|
E||-----------------------------|-------------------------|


  |--3--|            |--3-|     |--3--|                 
  E  E  E  Q    Q    Q    E     E  E  E  H        Q     
-----------------------------|-------------------------|
-----------------------------|-------------------------|
---------------------3----4--|--3--4--6--3-------------|
--6--4--6-------6------------|--------------------4----|
-----------6-----------------|-------------------------|
-----------------------------|-------------------------|


  |--3--|            |--3-|     |--3--|                 
  E  E  E  Q    Q    Q    E     E  E  E  H.             
-----------------------------|-------------------------|
-----------------------------|-------------------------|
---------------------3----4--|--3-----3----------------|
--6--4--6-------6------------|-----6-----4~------------|
-----------6-----------------|-------------------------|
-----------------------------|-------------------------|


  |--3--|            |--3-|     |--3--|  |--3--|             
  E  E  E  Q    Q    Q    E     E  E  E  E  E  E  Q    Q     
-----------------------------|------------------------------|
-----------------------------|------------------------------|
-----------3----4----3----4--|------------------------------|
--6--4--6--------------------|--6--4--6--6--4--6--6---------|
-----------------------------|------------------------------|
-----------------------------|------------------------------|


  |--3-|  |--3--|                             |--3-|                       
  Q    E  E  E  E  Q    Q       H        Q    Q    E     W                 
-----------------------------|------------------------|-------------------|
------------------------9----|--7---------------------|-------------------|
--8----8--8-----6--8---------|-----------8----L-------|-------------------|
-------------9---------------|---------------------9--|--6----------------|
-----------------------------|------------------------|-------------------|
-----------------------------|------------------------|-------------------|


  |--3--|  |--3--|  |--3--|  |--3--|     |--3-|  |--3--|             
  E  E  E  E  E  E  E  E  E  E  E  E     Q    E  E  E  E  Q    Q     
--------------------------------------|-----------------------------|
-----------------------------------7--|------------------------9----|
-----------------6-----6--8--6--8-----|--8----8--8-----6--8---------|
--6--8--9--8--9-----9-----------------|-------------9---------------|
--------------------------------------|-----------------------------|
--------------------------------------|-----------------------------|


         |---3---|                                                        
    Q    E   E   E  Q    Q       W                   H          H         
------------------------------|-------------------|----------------------|
--/11----L--12--11--9----7----|--9----------------|--9--------/11--------|
------------------------------|-------------------|----------------------|
------------------------------|-------------------|----------------------|
------------------------------|-------------------|----------------------|
------------------------------|-------------------|----------------------|


     |--3--|   |---3--|               |--3-|  |--3--|            
     Q     E   E   E  E  Q    Q       Q    E  E  E  E  H         
|----------------------------------|----------------------------|
|---12----12--12--11--9--7---------|--9----9--9--7--------------|
|*----------------------------8----|----------------9--8--------|
|*---------------------------------|----------------------------|
|----------------------------------|----------------------------|
|----------------------------------|----------------------------|


   |--3--|   |---3---|                                          
   Q     E   E   E   E    Q     Q        H         H            
--------------------------------------|-----------------------||
--12----12--12--11--12--/14----11~----|--9--------11~---------||
--------------------------------------|----------------------*||
--------------------------------------|----------------------*||
--------------------------------------|-----------------------||
--------------------------------------|-----------------------||


    |--3--|   |---3--|               |--3-|  |--3--|            
    Q     E   E   E  E  Q    Q       Q    E  E  E  E  H         
----------------------------------|----------------------------|
---12----12--12--11--9--7---------|--9----9--9--7--------------|
*----------------------------8----|----------------9--8--------|
*---------------------------------|----------------------------|
----------------------------------|----------------------------|
----------------------------------|----------------------------|


   |--3--|   |---3---|                   |--3--|  |--3--|               
   Q     E   E   E   E    Q     Q        E  E  E  E  E  E  Q    Q       
--------------------------------------|-------------------------------||
--12----12--12--11--12--/14----11~----|--9--7--9--9--7--9--9----------||
--------------------------------------|------------------------------*||
--------------------------------------|------------------------------*||
--------------------------------------|-------------------------------||
--------------------------------------|-------------------------------||


   |--3--|   |---3---|                                                       
   Q     E   E   E   E   Q     Q        Q.      S  S  Q    Q                 
------------------------------------|---------------------------|
--12----12--12--11--12--14----11----|--11------12-11------------|
------------------------------------|----------------13---------|
------------------------------------|---------------------------|
------------------------------------|---------------------------|
------------------------------------|---------------------------|



Duration
---------------
W - whole
H - half
Q - quarter
E - 8th
S - 16th
T - 32nd
X - 64th
. - note dotted
* - Repeat


Добавлено: 16.03.2012
Другие материалы по этой песне:

Страница создана 16.03.2012
http://primanota.ru/misc-computer-games/chrono-trigger-frogs-theme-chords.htm
Привет, Гость.
Предлагаем пройти революционный курс по гитаре.
Подарок от PrimaNota.Ru, забирай!