PrimaNota.ru - самый крупный в мире бесплатный архив песенных текстов, аккордов, табулатур и нот


Misc Computer Games - Chrono Trigger - Festival Of Stars - бас-таба, видео

Регистрация Запомнить меня
Войти через:  Facebook Google Twitter Vk Yandex Mail.ru

Misc Computer Games - Chrono Trigger - Festival Of Stars - бас-таба, видео

Печатать
Просмотров: 163
Уроки эстрадного вокала в Санкт-Петербурге
Chrono Trigger - Festival of Stars

Tabbed by: XxThreeCheersxX
E-mail: burdickash@gmail.com

Tuning: Standard

Part I
G|-----------------------------------------------------|
D|-0-----0-----0-----0----------0-----2-----0----------|
A|----0-----0-----0----4-2-0-------0-----------0-0-2-4-| x 3
E|---------------------------3-----------3-------------|

Part II
G|--------------------------------------2---------2-0-----|
D|----0------2------0------2------0--0----0----2------4-2-|
A|--------0----0--------0----0--------------0-------------|
E|-3----3--------3----3--------3--------------------------|

G|--------------------------------------2---------------------------------|
D|----0------2------0------2------0--0----0----5-------5------2-------2---|
A|--------0----0--------0----0--------------3-----33-3---3-0-----00-0---0-|
E|-3----3--------3----3--------3------------------------------------------|

Part III
G|--------------------------------------------------------------------------------------|
D|-0--------0-----------2--------2------------0--------0-----------2--------2-0----2----|
A|---------------------------------0----------------------------------------------------|
E|------------3-------3----------------------------------3-------3----------------------|

G|-----------------------------|
D|-0--0--0---0---0--0--0-------|
A|---------0---0---------4-2-0-|
E|-----------------------------|

Part IV
G|-------------------7---5-7-------------------9-7---------------------7---5---5-7-|
D|-0--0--0--0--0--0----7-----0--0--0--0--0--0------10-7-0--0--0--0--0----7---7-----|
A|---------------------------------------------------------------------------------|
E|---------------------------------------------------------------------------------|

G|----------------------------|
D|--------------------7-------|
A|-3--3-3---------------0-2-4-|
E|--------3--3-4-5--5---------|

Happy playing!  


| /  slide up
| \  slide down
| h  hammer-on
| p  pull-off
| ~  vibrato
| +  harmonic
| x  Mute note
===============================================================================
Добавлено: 26.04.2015
Другие материалы по этой песне:

Страница создана 11.05.2012
http://primanota.ru/misc-computer-games/chrono-trigger-festival-of-stars-chords.htm
Привет, Гость.
Предлагаем пройти революционный курс по гитаре.
Подарок от PrimaNota.Ru, забирай!