PrimaNota.ru - самый крупный в мире бесплатный архив песенных текстов, аккордов, табулатур и нот


Misc Computer Games - Chrono Trigger - Fanfare 1 - бас-таба, видео

Регистрация Запомнить меня
Войти через:  Facebook Google Twitter Vk Yandex Mail.ru

Misc Computer Games - Chrono Trigger - Fanfare 1 - бас-таба, видео

Печатать
Просмотров: 84
Chrono Trigger - Fanfare 1

Tabbed by: XxThreeCheersxX
E-mail: burdickash@gmail.com

Tuning: Standard

Intro
G|--------------------------------------|
D|-0--0---------------------------------|
A|-------3--3--1--1--1--3--5--5--5--5x--|
E|--------------------------------------|

The entire rest of the song 
(if you want, this sounds really good if you pop and slap the notes; it is just octaves)
G|-------------------7---7---7---7-|
D|---5---5---7---7-----------------|
A|-----------------5---5---5---5---| x 2
E|-3---3---5---5-------------------|

G|-------------------7---7---7---7---3---3---5---5---7---7---7---7-|
D|---5---5---7---7-------------------------------------------------|
A|-----------------5---5---5---3---1---1---3---3---5---5---5---5---|
E|-3---3---5---5---------------------------------------------------|

Repeat for all of infinity.

Happy playing!

| /  slide up
| \  slide down
| h  hammer-on
| p  pull-off
| ~  vibrato
| +  harmonic
| x  Mute note
===============================================================================
Добавлено: 27.06.2015
Другие материалы по этой песне:
  • Аккорды и текст

Страница создана 27.06.2015
http://primanota.ru/misc-computer-games/chrono-trigger-fanfare-1-chords.htm
Привет, Гость.
Предлагаем пройти революционный курс по гитаре.
Подарок от PrimaNota.Ru, забирай!