PrimaNota.ru - самый крупный в мире бесплатный архив песенных текстов, аккордов, табулатур и нот


Misc Computer Games - Chrono Trigger - Black Omen - бас-таба, видео

Регистрация Запомнить меня
Войти через:  Facebook Google Twitter Vk Yandex Mail.ru

Misc Computer Games - Chrono Trigger - Black Omen - бас-таба, видео

Печатать
Просмотров: 113
Chrono Trigger - Black Omen

Tabbed by: XxThreeCheersxX 
E-mail: burdickash@gmail.com

Tuning: Standard

Part I
G|---------------------------------------------|
D|-----------5-3--------3----------------------|
A|---------------5-3--5---5--------------------| x 4
E|-3---3--------------------3---3--------3-1-1-|

Part II
G|-----------------------------------------------------------------|
D|---------------------------------1-1-1-1-1-1-1-1-1-1-1-1-1-1-1-1-|
A|-3-3-3-3-3-3-3-3-3-3-3-3-3-3-3-3---------------------------------| x 4
E|-----------------------------------------------------------------|

G|-------------------------------------|
D|-0-----------------------------------|
A|-----4---3~--------3---2---1~--------|
E|-------------------------------------|

Part III 
G|-----------------------------|
D|--------1--1-----------------|
A|-0--0-0------0--0-0----------| x 4
E|--------------------3--3-3-3-|

G|------------------|
D|------------------|
A|-0--1---2~--------|
E|------------------|

Happy playing!

| /  slide up
| \  slide down
| h  hammer-on
| p  pull-off
| ~  vibrato
| +  harmonic
| x  Mute note
===============================================================================
Добавлено: 13.04.2015
Другие материалы по этой песне:

Страница создана 09.05.2012
http://primanota.ru/misc-computer-games/chrono-trigger-black-omen-chords.htm
Привет, Гость.
Предлагаем пройти революционный курс по гитаре.
Подарок от PrimaNota.Ru, забирай!