PrimaNota.ru - самый крупный в мире бесплатный архив песенных текстов, аккордов, табулатур и нот


Misc Computer Games - Chrono Trigger - Bike Chase - бас-таба, видео

Регистрация Запомнить меня
Войти через:  Facebook Google Twitter Vk Yandex Mail.ru

Misc Computer Games - Chrono Trigger - Bike Chase - бас-таба, видео

Печатать
Просмотров: 141
Уроки эстрадного вокала в Санкт-Петербурге
Chrono Trigger - Bike Chase

Tabbed by: XxThreeCheersxX
E-mail: burdickash@gmail.com

Tuning: BEAD (Or a five string in standard)

Part I
D|--------------------------------|
A|--------------------------------|
E|-4-4-4-4-4-4-4-4-4-4-4------2-3-| x 4
B|-----------------------4--4-----|

Part II
D|-------4--4-3-4--------------2-1-2----------|
A|----------------6----------4-------4-----2--|
E|----6-------------6-----4------------0-4----| x 2
B|-4-------------------2----------------------|

Part III (notes on the B string are optional here)
D|-------------------------------------------------|
A|-6-----7-----6-----4-----6-----7-----9-----7-----|
E|-------------------------------------------------|
B|----4-----5-----4-----2-----4-----5-----7-----5--|

D|---------------------------------------5----------|
A|------6--4-6---------------6--7--8--9--------6-4--|
E|----6--------5-6--7--8--9------------------6------|
B|-4---------------------------------------4--------|

Happy playing!

| /  slide up
| \  slide down
| h  hammer-on
| p  pull-off
| ~  vibrato
| +  harmonic
| x  Mute note
===============================================================================
Добавлено: 13.04.2015
Другие материалы по этой песне:

Страница создана 30.04.2012
http://primanota.ru/misc-computer-games/chrono-trigger-bike-chase-chords.htm
Привет, Гость.
Предлагаем пройти революционный курс по гитаре.
Подарок от PrimaNota.Ru, забирай!