PrimaNota.ru - самый крупный в мире бесплатный архив песенных текстов, аккордов, табулатур и нот


Misc Computer Games - Chrono Trigger - Battle Theme - бас-таба, видео

Регистрация Запомнить меня
Войти через:  Facebook Google Twitter Vk Yandex Mail.ru

Misc Computer Games - Chrono Trigger - Battle Theme - бас-таба, видео

Печатать
Просмотров: 93
This was transcribed directly from the official sheet music book.  Happy playing!

G|-------------------------------5-7------|
D|--0--3-0---0-3-0--0--3-0--0--7----------|
A|----------------------------------------|
E|----------------------------------------|

G|-----------------------------7--5--------|
D|--0--3-0---0-3-0--0--3-0-----------7-5-3-|
A|-----------------------------------------|
E|-----------------------------------------|
Добавлено: 14.11.2013
Другие материалы по этой песне:

Страница создана 07.05.2012
http://primanota.ru/misc-computer-games/chrono-trigger-battle-theme-chords.htm
Привет, Гость.
Предлагаем пройти революционный курс по гитаре.
Подарок от PrimaNota.Ru, забирай!